  0
SECTION
  2
HEADER
  9
$ACADVER
  1
AC1015
  9
$ACADMAINTVER
 70
     6
  9
$DWGCODEPAGE
  3
ANSI_1250
  9
$INSBASE
 10
0.0
 20
0.0
 30
0.0
  9
$EXTMIN
 10
0.0
 20
0.0
 30
0.0
  9
$EXTMAX
 10
420.0
 20
420.0
 30
0.0
  9
$LIMMIN
 10
19.65525096449346
 20
-17.28415606652155
  9
$LIMMAX
 10
403.904580723196
 20
433.8217420567904
  9
$ORTHOMODE
 70
     0
  9
$REGENMODE
 70
     1
  9
$FILLMODE
 70
     1
  9
$QTEXTMODE
 70
     0
  9
$MIRRTEXT
 70
     1
  9
$LTSCALE
 40
27.3777777778
  9
$ATTMODE
 70
     1
  9
$TEXTSIZE
 40
0.2
  9
$TRACEWID
 40
0.05
  9
$TEXTSTYLE
  7
STANDARD
  9
$CLAYER
  8
0
  9
$CELTYPE
  6
BYLAYER
  9
$CECOLOR
 62
   256
  9
$CELTSCALE
 40
1.0
  9
$DISPSILH
 70
     0
  9
$DIMSCALE
 40
1.0
  9
$DIMASZ
 40
3.5
  9
$DIMEXO
 40
0.0
  9
$DIMDLI
 40
18.9155555556
  9
$DIMRND
 40
0.0
  9
$DIMDLE
 40
0.0
  9
$DIMEXE
 40
1.0
  9
$DIMTP
 40
0.04
  9
$DIMTM
 40
0.04
  9
$DIMTXT
 40
2.5
  9
$DIMCEN
 40
4.48
  9
$DIMTSZ
 40
0.0
  9
$DIMTOL
 70
     1
  9
$DIMLIM
 70
     0
  9
$DIMTIH
 70
     1
  9
$DIMTOH
 70
     1
  9
$DIMSE1
 70
     0
  9
$DIMSE2
 70
     0
  9
$DIMTAD
 70
     0
  9
$DIMZIN
 70
     0
  9
$DIMBLK
  1

  9
$DIMASO
 70
     1
  9
$DIMSHO
 70
     1
  9
$DIMPOST
  1

  9
$DIMAPOST
  1

  9
$DIMALT
 70
     0
  9
$DIMALTD
 70
     2
  9
$DIMALTF
 40
0.0393700787
  9
$DIMLFAC
 40
1.0
  9
$DIMTOFL
 70
     0
  9
$DIMTVP
 40
0.0
  9
$DIMTIX
 70
     0
  9
$DIMSOXD
 70
     0
  9
$DIMSAH
 70
     0
  9
$DIMBLK1
  1

  9
$DIMBLK2
  1

  9
$DIMSTYLE
  2
STANDARD
  9
$DIMCLRD
 70
     0
  9
$DIMCLRE
 70
     0
  9
$DIMCLRT
 70
     0
  9
$DIMTFAC
 40
1.0
  9
$DIMGAP
 40
0.625
  9
$DIMJUST
 70
     0
  9
$DIMSD1
 70
     0
  9
$DIMSD2
 70
     0
  9
$DIMTOLJ
 70
     1
  9
$DIMTZIN
 70
     0
  9
$DIMALTZ
 70
     0
  9
$DIMALTTZ
 70
     0
  9
$DIMUPT
 70
     0
  9
$DIMDEC
 70
     4
  9
$DIMTDEC
 70
     4
  9
$DIMALTU
 70
     2
  9
$DIMALTTD
 70
     2
  9
$DIMTXSTY
  7
STANDARD
  9
$DIMAUNIT
 70
     0
  9
$DIMADEC
 70
     0
  9
$DIMALTRND
 40
0.0
  9
$DIMAZIN
 70
     0
  9
$DIMDSEP
 70
    44
  9
$DIMATFIT
 70
     3
  9
$DIMFRAC
 70
     0
  9
$DIMLDRBLK
  1

  9
$DIMLUNIT
 70
     2
  9
$DIMLWD
 70
    -2
  9
$DIMLWE
 70
    -2
  9
$DIMTMOVE
 70
     0
  9
$LUNITS
 70
     2
  9
$LUPREC
 70
     4
  9
$SKETCHINC
 40
0.1
  9
$FILLETRAD
 40
0.5
  9
$AUNITS
 70
     0
  9
$AUPREC
 70
     0
  9
$MENU
  1
.
  9
$ELEVATION
 40
0.0
  9
$PELEVATION
 40
0.0
  9
$THICKNESS
 40
0.0
  9
$LIMCHECK
 70
     0
  9
$CHAMFERA
 40
0.0
  9
$CHAMFERB
 40
0.0
  9
$CHAMFERC
 40
0.0
  9
$CHAMFERD
 40
0.0
  9
$SKPOLY
 70
     0
  9
$TDCREATE
 40
2447893.083333333
  9
$TDUCREATE
 40
0.0
  9
$TDUPDATE
 40
2457229.830013495
  9
$TDUUPDATE
 40
2457229.746680162
  9
$TDINDWG
 40
0.0307910532
  9
$TDUSRTIMER
 40
2457229.738585613
  9
$USRTIMER
 70
     1
  9
$ANGBASE
 50
0.0
  9
$ANGDIR
 70
     0
  9
$PDMODE
 70
     3
  9
$PDSIZE
 40
6.0
  9
$PLINEWID
 40
0.0
  9
$SPLFRAME
 70
     0
  9
$SPLINETYPE
 70
     6
  9
$SPLINESEGS
 70
     8
  9
$HANDSEED
  5
986
  9
$SURFTAB1
 70
     6
  9
$SURFTAB2
 70
     6
  9
$SURFTYPE
 70
     6
  9
$SURFU
 70
     6
  9
$SURFV
 70
     6
  9
$UCSBASE
  2

  9
$UCSNAME
  2

  9
$UCSORG
 10
0.0
 20
0.0
 30
0.0
  9
$UCSXDIR
 10
1.0
 20
0.0
 30
0.0
  9
$UCSYDIR
 10
0.0
 20
1.0
 30
0.0
  9
$UCSORTHOREF
  2

  9
$UCSORTHOVIEW
 70
     0
  9
$UCSORGTOP
 10
0.0
 20
0.0
 30
0.0
  9
$UCSORGBOTTOM
 10
0.0
 20
0.0
 30
0.0
  9
$UCSORGLEFT
 10
0.0
 20
0.0
 30
0.0
  9
$UCSORGRIGHT
 10
0.0
 20
0.0
 30
0.0
  9
$UCSORGFRONT
 10
0.0
 20
0.0
 30
0.0
  9
$UCSORGBACK
 10
0.0
 20
0.0
 30
0.0
  9
$PUCSBASE
  2

  9
$PUCSNAME
  2

  9
$PUCSORG
 10
0.0
 20
0.0
 30
0.0
  9
$PUCSXDIR
 10
1.0
 20
0.0
 30
0.0
  9
$PUCSYDIR
 10
0.0
 20
1.0
 30
0.0
  9
$PUCSORTHOREF
  2

  9
$PUCSORTHOVIEW
 70
     0
  9
$PUCSORGTOP
 10
0.0
 20
0.0
 30
0.0
  9
$PUCSORGBOTTOM
 10
0.0
 20
0.0
 30
0.0
  9
$PUCSORGLEFT
 10
0.0
 20
0.0
 30
0.0
  9
$PUCSORGRIGHT
 10
0.0
 20
0.0
 30
0.0
  9
$PUCSORGFRONT
 10
0.0
 20
0.0
 30
0.0
  9
$PUCSORGBACK
 10
0.0
 20
0.0
 30
0.0
  9
$USERI1
 70
     0
  9
$USERI2
 70
     0
  9
$USERI3
 70
     0
  9
$USERI4
 70
     0
  9
$USERI5
 70
     0
  9
$USERR1
 40
0.0
  9
$USERR2
 40
0.0
  9
$USERR3
 40
0.0
  9
$USERR4
 40
0.0
  9
$USERR5
 40
0.0
  9
$WORLDVIEW
 70
     1
  9
$SHADEDGE
 70
     3
  9
$SHADEDIF
 70
    70
  9
$TILEMODE
 70
     1
  9
$MAXACTVP
 70
    64
  9
$PINSBASE
 10
0.0
 20
0.0
 30
0.0
  9
$PLIMCHECK
 70
     0
  9
$PEXTMIN
 10
1.000000000000000E+20
 20
1.000000000000000E+20
 30
1.000000000000000E+20
  9
$PEXTMAX
 10
-1.000000000000000E+20
 20
-1.000000000000000E+20
 30
-1.000000000000000E+20
  9
$PLIMMIN
 10
0.0
 20
0.0
  9
$PLIMMAX
 10
420.0
 20
420.0
  9
$UNITMODE
 70
     0
  9
$VISRETAIN
 70
     1
  9
$PLINEGEN
 70
     0
  9
$PSLTSCALE
 70
     1
  9
$TREEDEPTH
 70
  3020
  9
$CMLSTYLE
  2

  9
$CMLJUST
 70
     0
  9
$CMLSCALE
 40
1.0
  9
$PROXYGRAPHICS
 70
     1
  9
$MEASUREMENT
 70
     1
  9
$CELWEIGHT
370
    -1
  9
$ENDCAPS
280
     0
  9
$JOINSTYLE
280
     0
  9
$LWDISPLAY
290
     0
  9
$INSUNITS
 70
     4
  9
$HYPERLINKBASE
  1

  9
$STYLESHEET
  1

  9
$XEDIT
290
     1
  9
$CEPSNTYPE
380
     0
  9
$PSTYLEMODE
290
     1
  9
$FINGERPRINTGUID
  2
{134C1B8F-D09F-4F10-82D1-CD6C369694F4}
  9
$VERSIONGUID
  2
{FAEB1C32-E019-11D5-929B-00C0DF256EC4}
  9
$EXTNAMES
290
     1
  9
$PSVPSCALE
 40
0.0
  9
$OLESTARTUP
290
     0
  0
ENDSEC
  0
SECTION
  2
CLASSES
  0
CLASS
  1
ACDBDICTIONARYWDFLT
  2
AcDbDictionaryWithDefault
  3
ObjectDBX Classes
 90
        0
280
     0
281
     0
  0
CLASS
  1
ACDBPLACEHOLDER
  2
AcDbPlaceHolder
  3
ObjectDBX Classes
 90
        0
280
     0
281
     0
  0
CLASS
  1
LAYOUT
  2
AcDbLayout
  3
ObjectDBX Classes
 90
        0
280
     0
281
     0
  0
CLASS
  1
SCALE
  2
AcDbScale
  3
ObjectDBX Classes
 90
     1153
280
     0
281
     0
  0
CLASS
  1
VISUALSTYLE
  2
AcDbVisualStyle
  3
ObjectDBX Classes
 90
     4095
280
     0
281
     0
  0
CLASS
  1
MATERIAL
  2
AcDbMaterial
  3
ObjectDBX Classes
 90
     1153
280
     0
281
     0
  0
CLASS
  1
TABLESTYLE
  2
AcDbTableStyle
  3
ObjectDBX Classes
 90
     4095
280
     0
281
     0
  0
CLASS
  1
SUN
  2
AcDbSun
  3
SCENEOE
 90
     1153
280
     0
281
     0
  0
CLASS
  1
RASTERVARIABLES
  2
AcDbRasterVariables
  3
ISM
 90
        0
280
     0
281
     0
  0
CLASS
  1
DIMASSOC
  2
AcDbDimAssoc
  3
"AcDbDimAssoc|Product Desc:     AcDim ARX App For Dimension|Company:          Autodesk, Inc.|WEB Address:      www.autodesk.com"
 90
        0
280
     0
281
     0
  0
ENDSEC
  0
SECTION
  2
TABLES
  0
TABLE
  2
VPORT
  5
8
330
0
100
AcDbSymbolTable
 70
     1
  0
VPORT
  5
1F4
330
8
100
AcDbSymbolTableRecord
100
AcDbViewportTableRecord
  2
*ACTIVE
 70
     0
 10
0.0
 20
0.0
 11
1.0
 21
1.0
 12
256.468253645452
 22
219.1769699388338
 13
0.0
 23
0.0
 14
1.0
 24
1.0
 15
0.0
 25
0.0
 16
0.0
 26
0.0
 36
1.0
 17
0.0
 27
0.0
 37
0.0
 40
524.9999999999856
 41
2.250670241286863
 42
50.0
 43
0.0
 44
0.0
 50
0.0
 51
0.0
 71
    16
 72
   100
 73
     1
 74
     1
 75
     0
 76
     0
 77
     0
 78
     0
281
     0
 65
     1
110
0.0
120
0.0
130
0.0
111
1.0
121
0.0
131
0.0
112
0.0
122
1.0
132
0.0
 79
     0
146
0.0
  0
ENDTAB
  0
TABLE
  2
LTYPE
  5
5
330
0
100
AcDbSymbolTable
 70
     3
  0
LTYPE
  5
14
330
5
100
AcDbSymbolTableRecord
100
AcDbLinetypeTableRecord
  2
BYBLOCK
 70
     0
  3

 72
    65
 73
     0
 40
0.0
  0
LTYPE
  5
15
330
5
100
AcDbSymbolTableRecord
100
AcDbLinetypeTableRecord
  2
BYLAYER
 70
     0
  3

 72
    65
 73
     0
 40
0.0
  0
LTYPE
  5
16
330
5
100
AcDbSymbolTableRecord
100
AcDbLinetypeTableRecord
  2
CONTINUOUS
 70
     0
  3
Solid line
 72
    65
 73
     0
 40
0.0
  0
LTYPE
  5
1F5
330
5
100
AcDbSymbolTableRecord
100
AcDbLinetypeTableRecord
  2
CENTER
 70
     0
  3
____ _ ____ _ ____ _ ____ _ ____ _ ____ _ ____
 72
    65
 73
     4
 40
0.6
 49
0.375
 74
     0
 49
-0.075
 74
     0
 49
0.075
 74
     0
 49
-0.075
 74
     0
  0
LTYPE
  5
911
330
5
100
AcDbSymbolTableRecord
100
AcDbLinetypeTableRecord
  2
PHANTOM
 70
     0
  3
_____ _ _ _____ _ _ _____ _ _ _____
 72
    65
 73
     6
 40
0.8
 49
0.45
 74
     0
 49
-0.05
 74
     0
 49
0.1
 74
     0
 49
-0.05
 74
     0
 49
0.1
 74
     0
 49
-0.05
 74
     0
  0
ENDTAB
  0
TABLE
  2
LAYER
  5
2
330
0
100
AcDbSymbolTable
 70
     6
  0
LAYER
  5
10
330
2
100
AcDbSymbolTableRecord
100
AcDbLayerTableRecord
  2
0
 70
     0
 62
     7
  6
CONTINUOUS
370
    -3
390
F
  0
LAYER
  5
203
330
2
100
AcDbSymbolTableRecord
100
AcDbLayerTableRecord
  2
02__ASM_ALL_AXES
 70
     0
 62
     7
  6
CONTINUOUS
370
    -3
390
F
  0
LAYER
  5
204
330
2
100
AcDbSymbolTableRecord
100
AcDbLayerTableRecord
  2
02___PRT_ALL_AXES
 70
     0
 62
     7
  6
CONTINUOUS
370
    -3
390
F
  0
LAYER
  5
21F
330
2
100
AcDbSymbolTableRecord
100
AcDbLayerTableRecord
  2
ALL_ASSEM_MEMBER
 70
     0
 62
     7
  6
CONTINUOUS
370
    -3
390
F
  0
LAYER
  5
228
330
2
100
AcDbSymbolTableRecord
100
AcDbLayerTableRecord
  2
ALL_DETAIL_ITEM
 70
     0
 62
     7
  6
CONTINUOUS
370
    -3
390
F
  0
ENDTAB
  0
TABLE
  2
STYLE
  5
3
330
0
100
AcDbSymbolTable
 70
     1
  0
STYLE
  5
11
330
3
100
AcDbSymbolTableRecord
100
AcDbTextStyleTableRecord
  2
STANDARD
 70
     0
 40
0.0
 41
0.6
 50
0.0
 71
     0
 42
0.2
  3
txt
  4

  0
ENDTAB
  0
TABLE
  2
VIEW
  5
6
330
0
100
AcDbSymbolTable
 70
     0
  0
ENDTAB
  0
TABLE
  2
UCS
  5
7
330
0
100
AcDbSymbolTable
 70
     0
  0
ENDTAB
  0
TABLE
  2
APPID
  5
9
330
0
100
AcDbSymbolTable
 70
     1
  0
APPID
  5
24E
330
9
100
AcDbSymbolTableRecord
100
AcDbRegAppTableRecord
  2
ACAD
 70
     0
  0
ENDTAB
  0
TABLE
  2
DIMSTYLE
  5
A
330
0
100
AcDbSymbolTable
 70
     1
100
AcDbDimStyleTable
  0
DIMSTYLE
105
251
330
A
100
AcDbSymbolTableRecord
100
AcDbDimStyleTableRecord
  2
STANDARD
 70
     0
 41
3.5
 42
0.0
 44
1.0
 47
0.04
 48
0.04
 71
     1
 73
     0
 74
     0
 77
     1
 78
     8
140
2.5
147
0.625
178
     0
271
     1
272
     1
278
    44
284
     8
340
11
  0
ENDTAB
  0
TABLE
  2
BLOCK_RECORD
  5
1
330
0
100
AcDbSymbolTable
 70
     3
  0
BLOCK_RECORD
  5
24F
330
1
100
AcDbSymbolTableRecord
100
AcDbBlockTableRecord
  2
*Model_Space
340
813
  0
BLOCK_RECORD
  5
250
330
1
100
AcDbSymbolTableRecord
100
AcDbBlockTableRecord
  2
*Paper_Space
340
814
  0
ENDTAB
  0
ENDSEC
  0
SECTION
  2
BLOCKS
  0
BLOCK
  5
20
330
24F
100
AcDbEntity
  8
0
100
AcDbBlockBegin
  2
*Model_Space
 70
     0
 10
0.0
 20
0.0
 30
0.0
  3
*Model_Space
  1
*Model_Space
  0
ENDBLK
  5
21
330
24F
100
AcDbEntity
  8
0
100
AcDbBlockEnd
  0
BLOCK
  5
1C
330
250
100
AcDbEntity
 67
     1
  8
0
100
AcDbBlockBegin
  2
*Paper_Space
 70
     0
 10
0.0
 20
0.0
 30
0.0
  3
*Paper_Space
  1
*Paper_Space
  0
ENDBLK
  5
1D
330
250
100
AcDbEntity
 67
     1
  8
0
100
AcDbBlockEnd
  0
ENDSEC
  0
SECTION
  2
ENTITIES
  0
MTEXT
  5
252
330
24F
100
AcDbEntity
  8
ALL_DETAIL_ITEM
  6
Continuous
 62
     0
100
AcDbMText
 10
249.2349168465273
 20
108.3411255694396
 30
0.0
 40
10.0
 41
102.8907019381445
 71
     1
 72
     1
  1
{M 1:10\PDVV 800 H=1280}
 73
     1
 44
0.9
1001
ACAD
1000
ACAD_MTEXT_DEFINED_HEIGHT_BEGIN
1070
    46
1040
25.0
1000
ACAD_MTEXT_DEFINED_HEIGHT_END
  0
LINE
  5
257
330
24F
100
AcDbEntity
  8
ALL_ASSEM_MEMBER
  6
Continuous
 62
     0
100
AcDbLine
 10
42.6260398282
 20
264.4806471896
 30
0.0
 11
42.6312929474
 21
264.4893951958
 31
0.0
  0
LINE
  5
258
330
24F
100
AcDbEntity
  8
ALL_ASSEM_MEMBER
  6
Continuous
 62
     0
100
AcDbLine
 10
42.6564626034
 20
264.5298229576
 30
0.0
 11
42.6312929474
 21
264.4893951958
 31
0.0
  0
LWPOLYLINE
  5
259
330
24F
100
AcDbEntity
  8
ALL_ASSEM_MEMBER
  6
Continuous
 62
     0
100
AcDbPolyline
 90
        3
 70
     0
 43
0.0
 10
42.6695612907
 20
264.4893951958
 10
42.6946285189
 20
264.5296598003
 10
42.7180445281
 20
264.5665591374
  0
LINE
  5
25A
330
24F
100
AcDbEntity
  8
ALL_ASSEM_MEMBER
  6
Continuous
 62
     0
100
AcDbLine
 10
42.6797761849
 20
264.5665591374
 30
0.0
 11
42.6564626034
 21
264.5298229576
 31
0.0
  0
LINE
  5
25B
330
24F
100
AcDbEntity
  8
ALL_ASSEM_MEMBER
  6
Continuous
 62
     0
100
AcDbLine
 10
47.0604324814
 20
271.3809133764
 30
0.0
 11
42.6797761849
 21
264.5665591374
 31
0.0
  0
LINE
  5
25C
330
24F
100
AcDbEntity
  8
ALL_ASSEM_MEMBER
  6
Continuous
 62
     0
100
AcDbLine
 10
42.6001378625
 20
264.4426773027
 30
0.0
 11
42.6304989326
 21
264.4899056339
 31
0.0
  0
LINE
  5
25D
330
24F
100
AcDbEntity
  8
ALL_ASSEM_MEMBER
  6
Continuous
 62
     0
100
AcDbLine
 10
47.0987008246
 20
271.3809133764
 30
0.0
 11
42.7180445281
 21
264.5665591374
 31
0.0
  0
LINE
  5
25E
330
24F
100
AcDbEntity
  8
ALL_ASSEM_MEMBER
  6
Continuous
 62
     0
100
AcDbLine
 10
42.6695612907
 20
264.4893951958
 30
0.0
 11
42.6634905102
 21
264.4807330878
 31
0.0
  0
LWPOLYLINE
  5
25F
330
24F
100
AcDbEntity
  8
ALL_ASSEM_MEMBER
  6
Continuous
 62
     0
100
AcDbPolyline
 90
        4
 70
     0
 43
0.0
 10
42.6159548024
 20
264.4586846815
 10
42.6179349828
 20
264.4648331365
 10
42.6214054633
 20
264.4722430535
 10
42.6260398282
 20
264.4806471896
  0
LINE
  5
260
330
24F
100
AcDbEntity
  8
ALL_ASSEM_MEMBER
  6
Continuous
 62
     0
100
AcDbLine
 10
42.6617317304
 20
264.4426773027
 30
0.0
 11
42.7180445281
 21
264.5665591374
 31
0.0
  0
LWPOLYLINE
  5
261
330
24F
100
AcDbEntity
  8
ALL_ASSEM_MEMBER
  6
Continuous
 62
     0
100
AcDbPolyline
 90
        6
 70
     0
 43
0.0
 10
42.6634905102
 20
264.4807330878
 10
42.6562756391
 20
264.4724904317
 10
42.6483424039
 20
264.4650878084
 10
42.640283738
 20
264.4589449614
 10
42.6327405323
 20
264.4543864814
 10
42.6262036073
 20
264.4515658691
  0
LINE
  5
262
330
24F
100
AcDbEntity
  8
ALL_ASSEM_MEMBER
  6
Continuous
 62
     0
100
AcDbLine
 10
42.5809615776
 20
170.3334311131
 30
0.0
 11
42.607438468
 21
170.2721920468
 31
0.0
  0
LINE
  5
263
330
24F
100
AcDbEntity
  8
ALL_ASSEM_MEMBER
  6
Continuous
 62
     0
100
AcDbLine
 10
49.9022208429
 20
153.3999062818
 30
0.0
 11
42.6536449256
 21
170.165319968
 31
0.0
  0
LINE
  5
264
330
24F
100
AcDbEntity
  8
ALL_ASSEM_MEMBER
  6
Continuous
 62
     0
100
AcDbLine
 10
49.9481428548
 20
153.3999062818
 30
0.0
 11
42.6995669375
 21
170.165319968
 31
0.0
  0
LWPOLYLINE
  5
265
330
24F
100
AcDbEntity
  8
ALL_ASSEM_MEMBER
  6
Continuous
 62
     0
100
AcDbPolyline
 90
        3
 70
     0
 43
0.0
 10
42.6995669375
 20
170.165319968
 10
42.6774287475
 20
170.2170670785
 10
42.6540976843
 20
170.2725107794
  0
LWPOLYLINE
  5
266
330
24F
100
AcDbEntity
  8
ALL_ASSEM_MEMBER
  6
Continuous
 62
     0
100
AcDbPolyline
 90
        3
 70
     0
 43
0.0
 10
42.6081756725
 20
170.2725107794
 10
42.6314451714
 20
170.2172123074
 10
42.6536449256
 20
170.165319968
  0
LWPOLYLINE
  5
267
330
24F
100
AcDbEntity
  8
ALL_ASSEM_MEMBER
  6
Continuous
 62
     0
100
AcDbPolyline
 90
        4
 70
     0
 43
0.0
 10
42.6081756725
 20
170.2725107794
 10
42.6037098764
 20
170.2835280276
 10
42.5998575142
 20
170.2939313702
 10
42.5968965388
 20
170.3034671412
  0
LINE
  5
268
330
24F
100
AcDbEntity
  8
ALL_ASSEM_MEMBER
  6
Continuous
 62
     0
100
AcDbLine
 10
42.6481720492
 20
170.3334311131
 30
0.0
 11
42.6995669375
 21
170.165319968
 31
0.0
  0
LWPOLYLINE
  5
269
330
24F
100
AcDbEntity
  8
ALL_ASSEM_MEMBER
  6
Continuous
 62
     0
100
AcDbPolyline
 90
        4
 70
     0
 43
0.0
 10
42.6336557861
 20
170.4326435332
 10
42.635288755
 20
170.3987414658
 10
42.6401574925
 20
170.3654657368
 10
42.6481720492
 20
170.3334311131
  0
LWPOLYLINE
  5
26A
330
24F
100
AcDbEntity
  8
ALL_ASSEM_MEMBER
  6
Continuous
 62
     0
100
AcDbPolyline
 90
        4
 70
     0
 43
0.0
 10
42.6336557861
 20
264.3074879048
 10
42.6368519195
 20
264.3548120748
 10
42.6463247471
 20
264.400424997
 10
42.6617317304
 20
264.4426773027
  0
LINE
  5
26B
330
24F
100
AcDbEntity
  8
ALL_ASSEM_MEMBER
  6
Continuous
 62
     0
100
AcDbLine
 10
42.6263251783
 20
170.3111720006
 30
0.0
 11
42.6345490135
 21
170.303002019
 31
0.0
  0
LWPOLYLINE
  5
26C
330
24F
100
AcDbEntity
  8
ALL_ASSEM_MEMBER
  6
Continuous
 62
     0
100
AcDbPolyline
 90
        4
 70
     0
 43
0.0
 10
42.6345490135
 20
170.303002019
 10
42.6421725581
 20
170.2935909011
 10
42.6488116359
 20
170.2832724448
 10
42.6540976843
 20
170.2725107794
  0
LWPOLYLINE
  5
26D
330
24F
100
AcDbEntity
  8
ALL_ASSEM_MEMBER
  6
Continuous
 62
     0
100
AcDbPolyline
 90
        4
 70
     0
 43
0.0
 10
49.9481428548
 20
153.3999062818
 10
49.9526989396
 20
153.3870121267
 10
49.9554398614
 20
153.3737153801
 10
49.9563544933
 20
153.3602213137
  0
LWPOLYLINE
  5
26E
330
24F
100
AcDbEntity
  8
ALL_ASSEM_MEMBER
  6
Continuous
 62
     0
100
AcDbPolyline
 90
        4
 70
     0
 43
0.0
 10
42.5968965388
 20
170.3034671412
 10
42.595231741
 20
170.3115937261
 10
42.5951509625
 20
170.3177912743
 10
42.5967323016
 20
170.3219594183
  0
LINE
  5
26F
330
24F
100
AcDbEntity
  8
ALL_ASSEM_MEMBER
  6
Continuous
 62
     0
100
AcDbLine
 10
42.5604324814
 20
264.3074879048
 30
0.0
 11
42.5604324814
 21
170.4326435332
 31
0.0
  0
LINE
  5
270
330
24F
100
AcDbEntity
  8
ALL_ASSEM_MEMBER
  6
Continuous
 62
     0
100
AcDbLine
 10
42.6336557861
 20
170.4326435332
 30
0.0
 11
42.6336557861
 21
264.3074879048
 31
0.0
  0
LINE
  5
271
330
24F
100
AcDbEntity
  8
ALL_ASSEM_MEMBER
  6
Continuous
 62
     0
100
AcDbLine
 10
47.3104324814
 20
147.8809133764
 30
0.0
 11
47.3104324814
 21
144.3809133764
 31
0.0
  0
LINE
  5
272
330
24F
100
AcDbEntity
  8
ALL_ASSEM_MEMBER
  6
Continuous
 62
     0
100
AcDbLine
 10
49.9104324814
 20
153.3602213137
 30
0.0
 11
49.9104324814
 21
149.3809133764
 31
0.0
  0
LINE
  5
273
330
24F
100
AcDbEntity
  8
ALL_ASSEM_MEMBER
  6
Continuous
 62
     0
100
AcDbLine
 10
49.9563544933
 20
153.3602213137
 30
0.0
 11
49.9563544933
 21
149.3809133764
 31
0.0
  0
LWPOLYLINE
  5
275
330
24F
100
AcDbEntity
  8
ALL_ASSEM_MEMBER
  6
Continuous
 62
     0
100
AcDbPolyline
 90
        3
 70
     0
 43
0.0
 10
42.6108971432
 20
170.321845125
 10
42.6181890854
 20
170.3175767706
 10
42.6263251783
 20
170.3111720006
  0
LINE
  5
276
330
24F
100
AcDbEntity
  8
ALL_ASSEM_MEMBER
  6
Continuous
 62
     0
100
AcDbLine
 10
47.3104324814
 20
144.3809133764
 30
0.0
 11
172.8104324814
 21
144.3809133764
 31
0.0
  0
LWPOLYLINE
  5
277
330
24F
100
AcDbEntity
  8
ALL_ASSEM_MEMBER
  6
Continuous
 62
     0
100
AcDbPolyline
 90
        3
 70
     0
 43
0.0
 10
82.1844879973
 20
264.4893951958
 10
82.1948711832
 20
264.5296598003
 10
82.2045704118
 20
264.5665591374
  0
LWPOLYLINE
  5
278
330
24F
100
AcDbEntity
  8
ALL_ASSEM_MEMBER
  6
Continuous
 62
     0
100
AcDbPolyline
 90
        3
 70
     0
 43
0.0
 10
82.1121824586
 20
264.5665591374
 10
82.1025256569
 20
264.5298229576
 10
82.092100044
 20
264.4893951958
  0
LINE
  5
279
330
24F
100
AcDbEntity
  8
ALL_ASSEM_MEMBER
  6
Continuous
 62
     0
100
AcDbLine
 10
83.9267097087
 20
271.3809133764
 30
0.0
 11
82.1121824586
 21
264.5665591374
 31
0.0
  0
LINE
  5
27A
330
24F
100
AcDbEntity
  8
ALL_ASSEM_MEMBER
  6
Continuous
 62
     0
100
AcDbLine
 10
84.0190976619
 20
271.3809133764
 30
0.0
 11
82.2045704118
 21
264.5665591374
 31
0.0
  0
LWPOLYLINE
  5
27B
330
24F
100
AcDbEntity
  8
ALL_ASSEM_MEMBER
  6
Continuous
 62
     0
100
AcDbPolyline
 90
        8
 70
     0
 43
0.0
 10
82.1844879973
 20
264.4893951958
 10
82.1811059014
 20
264.4807330878
 10
82.1754586686
 20
264.4724904317
 10
82.1677335086
 20
264.4650878084
 10
82.1583656743
 20
264.4589449614
 10
82.1479889411
 20
264.4543864814
 10
82.137201321
 20
264.4515658691
 10
82.126645832
 20
264.4505568666
  0
LINE
  5
27C
330
24F
100
AcDbEntity
  8
ALL_ASSEM_MEMBER
  6
Continuous
 62
     0
100
AcDbLine
 10
82.0558696608
 20
264.4426773027
 30
0.0
 11
82.1121824586
 21
264.5665591374
 31
0.0
  0
LINE
  5
27D
330
24F
100
AcDbEntity
  8
ALL_ASSEM_MEMBER
  6
Continuous
 62
     0
100
AcDbLine
 10
47.8104324814
 20
148.3809133764
 30
0.0
 11
172.3104324814
 21
148.3809133764
 31
0.0
  0
LINE
  5
27E
330
24F
100
AcDbEntity
  8
ALL_ASSEM_MEMBER
  6
Continuous
 62
     0
100
AcDbLine
 10
170.2104324814
 20
149.3809133764
 30
0.0
 11
170.1645104695
 21
149.3809133764
 31
0.0
  0
LINE
  5
27F
330
24F
100
AcDbEntity
  8
ALL_ASSEM_MEMBER
  6
Continuous
 62
     0
100
AcDbLine
 10
135.02130027
 20
149.3809133764
 30
0.0
 11
134.9152342528
 21
149.3809133764
 31
0.0
  0
LINE
  5
280
330
24F
100
AcDbEntity
  8
ALL_ASSEM_MEMBER
  6
Continuous
 62
     0
100
AcDbLine
 10
170.1645104695
 20
149.3809133764
 30
0.0
 11
135.02130027
 21
149.3809133764
 31
0.0
  0
LINE
  5
281
330
24F
100
AcDbEntity
  8
ALL_ASSEM_MEMBER
  6
Continuous
 62
     0
100
AcDbLine
 10
85.0995646928
 20
149.3809133764
 30
0.0
 11
49.9563544933
 21
149.3809133764
 31
0.0
  0
LINE
  5
282
330
24F
100
AcDbEntity
  8
ALL_ASSEM_MEMBER
  6
Continuous
 62
     0
100
AcDbLine
 10
49.9104324814
 20
149.3809133764
 30
0.0
 11
49.9563544933
 21
149.3809133764
 31
0.0
  0
LINE
  5
283
330
24F
100
AcDbEntity
  8
ALL_ASSEM_MEMBER
  6
Continuous
 62
     0
100
AcDbLine
 10
85.0995646928
 20
149.3809133764
 30
0.0
 11
85.2056307099
 21
149.3809133764
 31
0.0
  0
LINE
  5
284
330
24F
100
AcDbEntity
  8
ALL_ASSEM_MEMBER
  6
Continuous
 62
     0
100
AcDbLine
 10
85.2104302367
 20
149.3809133764
 30
0.0
 11
134.9104347261
 21
149.3809133764
 31
0.0
  0
LINE
  5
285
330
24F
100
AcDbEntity
  8
ALL_ASSEM_MEMBER
  6
Continuous
 62
     0
100
AcDbLine
 10
170.2104324814
 20
153.3602213137
 30
0.0
 11
134.9152342528
 21
153.3602213137
 31
0.0
  0
LINE
  5
286
330
24F
100
AcDbEntity
  8
ALL_ASSEM_MEMBER
  6
Continuous
 62
     0
100
AcDbLine
 10
134.9104347261
 20
153.3602213137
 30
0.0
 11
110.0754324814
 21
153.3602213137
 31
0.0
  0
LINE
  5
287
330
24F
100
AcDbEntity
  8
ALL_ASSEM_MEMBER
  6
Continuous
 62
     0
100
AcDbLine
 10
109.7604324814
 20
153.3602213137
 30
0.0
 11
109.6568790908
 21
153.3602213137
 31
0.0
  0
LINE
  5
288
330
24F
100
AcDbEntity
  8
ALL_ASSEM_MEMBER
  6
Continuous
 62
     0
100
AcDbLine
 10
109.6568790908
 20
153.3602213137
 30
0.0
 11
85.2104302367
 21
153.3602213137
 31
0.0
  0
LINE
  5
289
330
24F
100
AcDbEntity
  8
ALL_ASSEM_MEMBER
  6
Continuous
 62
     0
100
AcDbLine
 10
49.9104324814
 20
153.3602213137
 30
0.0
 11
85.2056307099
 21
153.3602213137
 31
0.0
  0
LINE
  5
28A
330
24F
100
AcDbEntity
  8
ALL_ASSEM_MEMBER
  6
Continuous
 62
     0
100
AcDbLine
 10
109.7656043918
 20
153.3602213137
 30
0.0
 11
110.0754324814
 21
153.3602213137
 31
0.0
  0
LINE
  5
28B
330
24F
100
AcDbEntity
  8
ALL_ASSEM_MEMBER
  6
Continuous
 62
     0
100
AcDbLine
 10
170.172722108
 20
153.3999062818
 30
0.0
 11
135.024701642
 21
153.3999062818
 31
0.0
  0
LINE
  5
28C
330
24F
100
AcDbEntity
  8
ALL_ASSEM_MEMBER
  6
Continuous
 62
     0
100
AcDbLine
 10
134.9138360981
 20
153.3999062818
 30
0.0
 11
110.0754324814
 21
153.3999062818
 31
0.0
  0
LINE
  5
28D
330
24F
100
AcDbEntity
  8
ALL_ASSEM_MEMBER
  6
Continuous
 62
     0
100
AcDbLine
 10
109.7604324814
 20
153.3999062818
 30
0.0
 11
85.2070288646
 21
153.3999062818
 31
0.0
  0
LINE
  5
28E
330
24F
100
AcDbEntity
  8
ALL_ASSEM_MEMBER
  6
Continuous
 62
     0
100
AcDbLine
 10
85.0961633207
 20
153.3999062818
 30
0.0
 11
49.9481428548
 21
153.3999062818
 31
0.0
  0
LINE
  5
28F
330
24F
100
AcDbEntity
  8
ALL_ASSEM_MEMBER
  6
Continuous
 62
     0
100
AcDbLine
 10
82.1692444147
 20
170.303002019
 30
0.0
 11
82.1770719334
 21
170.2935909011
 31
0.0
  0
LWPOLYLINE
  5
290
330
24F
100
AcDbEntity
  8
ALL_ASSEM_MEMBER
  6
Continuous
 62
     0
100
AcDbPolyline
 90
        3
 70
     0
 43
0.0
 10
82.1770719334
 20
170.2935909011
 10
82.1826267134
 20
170.2832724448
 10
82.1857364305
 20
170.2725107794
  0
LINE
  5
291
330
24F
100
AcDbEntity
  8
ALL_ASSEM_MEMBER
  6
Continuous
 62
     0
100
AcDbLine
 10
82.0423099797
 20
170.3334311131
 30
0.0
 11
82.0937048679
 21
170.165319968
 31
0.0
  0
LINE
  5
292
330
24F
100
AcDbEntity
  8
ALL_ASSEM_MEMBER
  6
Continuous
 62
     0
100
AcDbLine
 10
82.1767423902
 20
170.2767397595
 30
0.0
 11
82.1910611272
 21
170.2248474201
 31
0.0
  0
LINE
  5
293
330
24F
100
AcDbEntity
  8
ALL_ASSEM_MEMBER
  6
Continuous
 62
     0
100
AcDbLine
 10
82.1704900164
 20
170.3015044173
 30
0.0
 11
82.1767423902
 21
170.2767397595
 31
0.0
  0
LINE
  5
294
330
24F
100
AcDbEntity
  8
ALL_ASSEM_MEMBER
  6
Continuous
 62
     0
100
AcDbLine
 10
85.19351958
 20
153.4594337339
 30
0.0
 11
85.2002392299
 21
153.4271983461
 31
0.0
  0
LINE
  5
295
330
24F
100
AcDbEntity
  8
ALL_ASSEM_MEMBER
  6
Continuous
 62
     0
100
AcDbLine
 10
85.0961633207
 20
153.3999062818
 30
0.0
 11
82.0937048679
 21
170.165319968
 31
0.0
  0
LINE
  5
296
330
24F
100
AcDbEntity
  8
ALL_ASSEM_MEMBER
  6
Continuous
 62
     0
100
AcDbLine
 10
85.19351958
 20
153.4594337339
 30
0.0
 11
82.1910611272
 21
170.2248474201
 31
0.0
  0
LINE
  5
297
330
24F
100
AcDbEntity
  8
ALL_ASSEM_MEMBER
  6
Continuous
 62
     0
100
AcDbLine
 10
85.2070288646
 20
153.3999062818
 30
0.0
 11
82.2045704118
 21
170.165319968
 31
0.0
  0
LWPOLYLINE
  5
298
330
24F
100
AcDbEntity
  8
ALL_ASSEM_MEMBER
  6
Continuous
 62
     0
100
AcDbPolyline
 90
        3
 70
     0
 43
0.0
 10
82.2045704118
 20
170.165319968
 10
82.1954004733
 20
170.2170670785
 10
82.1857364305
 20
170.2725107794
  0
LWPOLYLINE
  5
299
330
24F
100
AcDbEntity
  8
ALL_ASSEM_MEMBER
  6
Continuous
 62
     0
100
AcDbPolyline
 90
        3
 70
     0
 43
0.0
 10
82.0748708866
 20
170.2725107794
 10
82.0845094286
 20
170.2172123074
 10
82.0937048679
 20
170.165319968
  0
LWPOLYLINE
  5
29A
330
24F
100
AcDbEntity
  8
ALL_ASSEM_MEMBER
  6
Continuous
 62
     0
100
AcDbPolyline
 90
        4
 70
     0
 43
0.0
 10
85.0961633207
 20
153.3999062818
 10
85.0980505129
 20
153.3870121267
 10
85.0991858398
 20
153.3737153801
 10
85.0995646928
 20
153.3602213137
  0
LWPOLYLINE
  5
29B
330
24F
100
AcDbEntity
  8
ALL_ASSEM_MEMBER
  6
Continuous
 62
     0
100
AcDbPolyline
 90
        4
 70
     0
 43
0.0
 10
85.2070288646
 20
153.3999062818
 10
85.2089160568
 20
153.3870121267
 10
85.2100513837
 20
153.3737153801
 10
85.2104302367
 20
153.3602213137
  0
LWPOLYLINE
  5
29C
330
24F
100
AcDbEntity
  8
ALL_ASSEM_MEMBER
  6
Continuous
 62
     0
100
AcDbPolyline
 90
        6
 70
     0
 43
0.0
 10
82.0748708866
 20
170.2725107794
 10
82.0739864997
 20
170.2835280276
 10
82.0752801083
 20
170.2939313702
 10
82.0788910638
 20
170.3034671412
 10
82.08481654
 20
170.3115937261
 10
82.0879461169
 20
170.3144775253
  0
LWPOLYLINE
  5
29D
330
24F
100
AcDbEntity
  8
ALL_ASSEM_MEMBER
  6
Continuous
 62
     0
100
AcDbPolyline
 90
        4
 70
     0
 43
0.0
 10
82.0277937165
 20
170.4326435332
 10
82.0294266854
 20
170.3987414658
 10
82.0342954229
 20
170.3654657368
 10
82.0423099797
 20
170.3334311131
  0
LINE
  5
29E
330
24F
100
AcDbEntity
  8
ALL_ASSEM_MEMBER
  6
Continuous
 62
     0
100
AcDbLine
 10
85.2042817434
 20
153.3939564797
 30
0.0
 11
85.2056307099
 21
153.3602213137
 31
0.0
  0
LINE
  5
29F
330
24F
100
AcDbEntity
  8
ALL_ASSEM_MEMBER
  6
Continuous
 62
     0
100
AcDbLine
 10
82.0277937165
 20
170.4326435332
 30
0.0
 11
82.0277937165
 21
264.3074879048
 31
0.0
  0
LINE
  5
2A0
330
24F
100
AcDbEntity
  8
ALL_ASSEM_MEMBER
  6
Continuous
 62
     0
100
AcDbLine
 10
82.2045704118
 20
170.165319968
 30
0.0
 11
82.2045704118
 21
264.5665591374
 31
0.0
  0
LWPOLYLINE
  5
2A1
330
24F
100
AcDbEntity
  8
ALL_ASSEM_MEMBER
  6
Continuous
 62
     0
100
AcDbPolyline
 90
        4
 70
     0
 43
0.0
 10
82.0277937165
 20
264.3074879048
 10
82.0309898499
 20
264.3548120748
 10
82.0404626775
 20
264.400424997
 10
82.0558696608
 20
264.4426773027
  0
LWPOLYLINE
  5
2A2
330
24F
100
AcDbEntity
  8
ALL_ASSEM_MEMBER
  6
Continuous
 62
     0
100
AcDbPolyline
 90
        5
 70
     0
 43
0.0
 10
82.1243788138
 20
170.3239904339
 10
82.1361711184
 20
170.321845125
 10
82.1480078022
 20
170.3175767706
 10
82.1593493904
 20
170.3111720006
 10
82.1692444147
 20
170.303002019
  0
LINE
  5
2A3
330
24F
100
AcDbEntity
  8
ALL_ASSEM_MEMBER
  6
Continuous
 62
     0
100
AcDbLine
 10
135.024701642
 20
153.3999062818
 30
0.0
 11
134.9273453828
 21
153.4594337339
 31
0.0
  0
LWPOLYLINE
  5
2A4
330
24F
100
AcDbEntity
  8
ALL_ASSEM_MEMBER
  6
Continuous
 62
     0
100
AcDbPolyline
 90
        3
 70
     0
 43
0.0
 10
42.617478678
 20
264.4514096859
 10
42.6157760091
 20
264.4540918305
 10
42.6159548024
 20
264.4586846815
  0
LINE
  5
2A5
330
24F
100
AcDbEntity
  8
ALL_ASSEM_MEMBER
  6
Continuous
 62
     0
100
AcDbLine
 10
85.2002392299
 20
153.4271983461
 30
0.0
 11
85.2042817434
 21
153.3939564797
 31
0.0
  0
LINE
  5
2A6
330
24F
100
AcDbEntity
  8
ALL_ASSEM_MEMBER
  6
Continuous
 62
     0
100
AcDbLine
 10
85.0995646928
 20
153.3602213137
 30
0.0
 11
85.0995646928
 21
149.3809133764
 31
0.0
  0
LINE
  5
2A7
330
24F
100
AcDbEntity
  8
ALL_ASSEM_MEMBER
  6
Continuous
 62
     0
100
AcDbLine
 10
85.2056307099
 20
153.3602213137
 30
0.0
 11
85.2056307099
 21
149.3809133764
 31
0.0
  0
LINE
  5
2A8
330
24F
100
AcDbEntity
  8
ALL_ASSEM_MEMBER
  6
Continuous
 62
     0
100
AcDbLine
 10
85.2104302367
 20
153.3602213137
 30
0.0
 11
85.2104302367
 21
149.3809133764
 31
0.0
  0
LINE
  5
2AA
330
24F
100
AcDbEntity
  8
ALL_ASSEM_MEMBER
  6
Continuous
 62
     7
100
AcDbLine
 10
88.8604324814
 20
271.3809133764
 30
0.0
 11
88.8604324814
 21
275.9044517825
 31
0.0
  0
LINE
  5
2AB
330
24F
100
AcDbEntity
  8
ALL_ASSEM_MEMBER
  6
Continuous
 62
     7
100
AcDbLine
 10
90.2604324814
 20
271.3809133764
 30
0.0
 11
90.2604324814
 21
275.9044517825
 31
0.0
  0
LINE
  5
2AE
330
24F
100
AcDbEntity
  8
ALL_ASSEM_MEMBER
  6
Continuous
 62
     0
100
AcDbLine
 10
136.1941552541
 20
271.3809133764
 30
0.0
 11
136.1197739215
 21
271.3132905333
 31
0.0
  0
LWPOLYLINE
  5
2AF
330
24F
100
AcDbEntity
  8
ALL_ASSEM_MEMBER
  6
Continuous
 62
     0
100
AcDbPolyline
 90
        6
 70
     0
 43
0.0
 10
137.9851237558
 20
170.3219594183
 10
137.9970768344
 20
170.3240436577
 10
138.0085361532
 20
170.3239904339
 10
138.0190986808
 20
170.321845125
 10
138.0285463374
 20
170.3175767706
 10
138.0329180931
 20
170.3144666874
  0
LINE
  5
2B0
330
24F
100
AcDbEntity
  8
ALL_ASSEM_MEMBER
  6
Continuous
 62
     0
100
AcDbLine
 10
177.5399033852
 20
170.3334311131
 30
0.0
 11
110.0754324814
 21
170.3334311131
 31
0.0
  0
LINE
  5
2B1
330
24F
100
AcDbEntity
  8
ALL_ASSEM_MEMBER
  6
Continuous
 62
     0
100
AcDbLine
 10
109.7604324814
 20
170.3334311131
 30
0.0
 11
42.5809615776
 21
170.3334311131
 31
0.0
  0
LINE
  5
2B2
330
24F
100
AcDbEntity
  8
ALL_ASSEM_MEMBER
  6
Continuous
 62
     0
100
AcDbLine
 10
177.5604324814
 20
170.4326435332
 30
0.0
 11
110.0754324814
 21
170.4326435332
 31
0.0
  0
LINE
  5
2B3
330
24F
100
AcDbEntity
  8
ALL_ASSEM_MEMBER
  6
Continuous
 62
     0
100
AcDbLine
 10
109.7604324814
 20
170.4326435332
 30
0.0
 11
42.5604324814
 21
170.4326435332
 31
0.0
  0
LINE
  5
2B4
330
24F
100
AcDbEntity
  8
ALL_ASSEM_MEMBER
  6
Continuous
 62
     0
100
AcDbLine
 10
170.2186441199
 20
153.3999062818
 30
0.0
 11
170.1799543504
 21
153.4166339174
 31
0.0
  0
LINE
  5
2B5
330
24F
100
AcDbEntity
  8
ALL_ASSEM_MEMBER
  6
Continuous
 62
     0
100
AcDbLine
 10
138.0287649187
 20
264.4893951958
 30
0.0
 11
137.9913717269
 21
264.4508675628
 31
0.0
  0
LWPOLYLINE
  5
2B6
330
24F
100
AcDbEntity
  8
ALL_ASSEM_MEMBER
  6
Continuous
 62
     0
100
AcDbPolyline
 90
        5
 70
     0
 43
0.0
 10
138.0239507832
 20
264.4618316343
 10
138.0210999279
 20
264.4589449614
 10
138.0139682168
 20
264.4543864814
 10
138.0052491432
 20
264.4515658691
 10
137.9954447686
 20
264.4505568666
  0
LINE
  5
2B7
330
24F
100
AcDbEntity
  8
ALL_ASSEM_MEMBER
  6
Continuous
 62
     0
100
AcDbLine
 10
138.0086825042
 20
264.5665591374
 30
0.0
 11
137.9339895442
 21
264.4986529822
 31
0.0
  0
LINE
  5
2B8
330
24F
100
AcDbEntity
  8
ALL_ASSEM_MEMBER
  6
Continuous
 62
     0
100
AcDbLine
 10
138.0271600949
 20
170.165319968
 30
0.0
 11
137.9298038356
 21
170.2248474201
 31
0.0
  0
LINE
  5
2B9
330
24F
100
AcDbEntity
  8
ALL_ASSEM_MEMBER
  6
Continuous
 62
     0
100
AcDbLine
 10
42.5967323016
 20
170.3219594183
 30
0.0
 11
42.5988564848
 21
170.3236455937
 31
0.0
  0
LINE
  5
2BA
330
24F
100
AcDbEntity
  8
ALL_ASSEM_MEMBER
  6
Continuous
 62
     0
100
AcDbLine
 10
173.0604324814
 20
271.3809133764
 30
0.0
 11
173.0333545201
 21
271.3635061156
 31
0.0
  0
LINE
  5
2BB
330
24F
100
AcDbEntity
  8
ALL_ASSEM_MEMBER
  6
Continuous
 62
     0
100
AcDbLine
 10
138.0459940762
 20
170.2725107794
 30
0.0
 11
137.9771370978
 21
170.319136542
 31
0.0
  0
LWPOLYLINE
  5
2BC
330
24F
100
AcDbEntity
  8
ALL_ASSEM_MEMBER
  6
Continuous
 62
     0
100
AcDbPolyline
 90
        6
 70
     0
 43
0.0
 10
138.0329180931
 20
170.3144666874
 10
138.0364496723
 20
170.3111720006
 10
138.0422195146
 20
170.303002019
 10
138.0456657532
 20
170.2935909011
 10
138.0468823207
 20
170.2832724448
 10
138.0459940762
 20
170.2725107794
  0
LINE
  5
2BD
330
24F
100
AcDbEntity
  8
ALL_ASSEM_MEMBER
  6
Continuous
 62
     0
100
AcDbLine
 10
109.7604324814
 20
264.4426773027
 30
0.0
 11
109.7604324814
 21
264.3074879048
 31
0.0
  0
LINE
  5
2BE
330
24F
100
AcDbEntity
  8
ALL_ASSEM_MEMBER
  6
Continuous
 62
     0
100
AcDbLine
 10
109.7604324814
 20
153.4090851179
 30
0.0
 11
109.7604324814
 21
153.3602213137
 31
0.0
  0
LINE
  5
2BF
330
24F
100
AcDbEntity
  8
ALL_ASSEM_MEMBER
  6
Continuous
 62
     0
100
AcDbLine
 10
109.7604324814
 20
170.3334311131
 30
0.0
 11
109.7604324814
 21
170.4326435332
 31
0.0
  0
LINE
  5
2C0
330
24F
100
AcDbEntity
  8
02__ASM_ALL_AXES
  6
CENTER
 62
     2
100
AcDbLine
 10
110.0604324814
 20
142.3809133764
 30
0.0
 11
110.0604324814
 21
273.3809133764
 31
0.0
  0
LINE
  5
2C1
330
24F
100
AcDbEntity
  8
ALL_ASSEM_MEMBER
  6
Continuous
 62
     0
100
AcDbLine
 10
110.0754324814
 20
170.4326435332
 30
0.0
 11
110.0754324814
 21
170.3334311131
 31
0.0
  0
LINE
  5
2C2
330
24F
100
AcDbEntity
  8
ALL_ASSEM_MEMBER
  6
Continuous
 62
     0
100
AcDbLine
 10
110.0754324814
 20
153.3999062818
 30
0.0
 11
110.0754324814
 21
153.3602213137
 31
0.0
  0
LINE
  5
2C3
330
24F
100
AcDbEntity
  8
ALL_ASSEM_MEMBER
  6
Continuous
 62
     0
100
AcDbLine
 10
110.0754324814
 20
264.3074879048
 30
0.0
 11
110.0754324814
 21
264.4426773027
 31
0.0
  0
LINE
  5
2C4
330
24F
100
AcDbEntity
  8
ALL_ASSEM_MEMBER
  6
Continuous
 62
     0
100
AcDbLine
 10
177.4895720154
 20
264.4893951958
 30
0.0
 11
177.4625932005
 21
264.4719430298
 31
0.0
  0
LINE
  5
2C5
330
24F
100
AcDbEntity
  8
ALL_ASSEM_MEMBER
  6
Continuous
 62
     0
100
AcDbLine
 10
177.4410887779
 20
264.5665591374
 30
0.0
 11
177.4140108166
 21
264.5491518766
 31
0.0
  0
LINE
  5
2C7
330
24F
100
AcDbEntity
  8
ALL_ASSEM_MEMBER
  6
Continuous
 62
     0
100
AcDbLine
 10
194.4104324814
 20
192.9423870474
 30
0.0
 11
196.6104324814
 21
192.9423870474
 31
0.0
  0
LINE
  5
2C8
330
24F
100
AcDbEntity
  8
ALL_ASSEM_MEMBER
  6
Continuous
 62
     0
100
AcDbLine
 10
186.6104324814
 20
193.8923870474
 30
0.0
 11
192.8104324814
 21
193.8923870474
 31
0.0
  0
LINE
  5
2C9
330
24F
100
AcDbEntity
  8
ALL_ASSEM_MEMBER
  6
Continuous
 62
     0
100
AcDbLine
 10
192.8104324814
 20
195.1423870474
 30
0.0
 11
207.8104324814
 21
195.1423870474
 31
0.0
  0
LINE
  5
2CA
330
24F
100
AcDbEntity
  8
ALL_ASSEM_MEMBER
  6
Continuous
 62
     0
100
AcDbLine
 10
192.8104324814
 20
195.6423870474
 30
0.0
 11
195.8104324814
 21
195.6423870474
 31
0.0
  0
LINE
  5
2CB
330
24F
100
AcDbEntity
  8
ALL_ASSEM_MEMBER
  6
Continuous
 62
     0
100
AcDbLine
 10
191.0554324814
 20
196.3923870474
 30
0.0
 11
186.6104324814
 21
196.3923870474
 31
0.0
  0
LINE
  5
2CC
330
24F
100
AcDbEntity
  8
ALL_ASSEM_MEMBER
  6
Continuous
 62
     0
100
AcDbLine
 10
207.8104324814
 20
197.1423870474
 30
0.0
 11
195.8104324814
 21
197.1423870474
 31
0.0
  0
LWPOLYLINE
  5
2CD
330
24F
100
AcDbEntity
  8
ALL_ASSEM_MEMBER
  6
Continuous
 62
     0
100
AcDbPolyline
 90
       33
 70
     0
 43
0.0
 10
195.5104324814
 20
193.2470185368
 10
195.4489223689
 20
193.2480948626
 10
195.3879479159
 20
193.2513018353
 10
195.3278065366
 20
193.2565974291
 10
195.2687293796
 20
193.2639347798
 10
195.2109590478
 20
193.2732568899
 10
195.1547899026
 20
193.2844816108
 10
195.1004505204
 20
193.2975168942
 10
195.0480866822
 20
193.3122735357
 10
194.9978522433
 20
193.3286461037
 10
194.9497832779
 20
193.3465562089
 10
194.903948493
 20
193.3659097271
 10
194.8603787247
 20
193.3866212162
 10
194.8190230584
 20
193.4086463889
 10
194.7799123562
 20
193.4319037409
 10
194.7430590232
 20
193.4563181109
 10
194.7084732756
 20
193.4818130933
 10
194.6763172368
 20
193.5081775025
 10
194.6466526589
 20
193.535232495
 10
194.6194432389
 20
193.5628631282
 10
194.5946750588
 20
193.5909201209
 10
194.5722915568
 20
193.6192866037
 10
194.5521499022
 20
193.6479679587
 10
194.534187555
 20
193.6768875002
 10
194.5183457135
 20
193.7059655243
 10
194.5045463431
 20
193.7351664121
 10
194.4926855708
 20
193.7645538503
 10
194.4827332185
 20
193.7940636515
 10
194.4746607607
 20
193.8236198946
 10
194.4684213635
 20
193.8532232623
 10
194.4639755653
 20
193.8829272596
 10
194.4613160851
 20
193.912669549
 10
194.4604324814
 20
193.9423869944
  0
LINE
  5
2CE
330
24F
100
AcDbEntity
  8
ALL_ASSEM_MEMBER
  6
Continuous
 62
     0
100
AcDbLine
 10
177.4672200372
 20
170.165319968
 30
0.0
 11
177.4285302677
 21
170.1820476036
 31
0.0
  0
LINE
  5
2CF
330
24F
100
AcDbEntity
  8
ALL_ASSEM_MEMBER
  6
Continuous
 62
     0
100
AcDbLine
 10
177.5126892903
 20
170.2725107794
 30
0.0
 11
177.4740522844
 21
170.2892878714
 31
0.0
  0
LINE
  5
2D2
330
24F
100
AcDbEntity
  8
ALL_ASSEM_MEMBER
  6
Continuous
 62
     0
100
AcDbLine
 10
207.8104324814
 20
197.6423870474
 30
0.0
 11
195.8104324814
 21
197.6423870474
 31
0.0
  0
LINE
  5
2D3
330
24F
100
AcDbEntity
  8
ALL_ASSEM_MEMBER
  6
Continuous
 62
     0
100
AcDbLine
 10
207.8104324814
 20
198.1423870474
 30
0.0
 11
208.3104324814
 21
198.1423870474
 31
0.0
  0
LINE
  5
2D4
330
24F
100
AcDbEntity
  8
ALL_ASSEM_MEMBER
  6
Continuous
 62
     0
100
AcDbLine
 10
208.3104324814
 20
198.1923870474
 30
0.0
 11
211.3104324814
 21
198.1923870474
 31
0.0
  0
LINE
  5
2D5
330
24F
100
AcDbEntity
  8
ALL_ASSEM_MEMBER
  6
Continuous
 62
     0
100
AcDbLine
 10
210.8104324814
 20
198.2451401529
 30
0.0
 11
211.3104324814
 21
198.2451401529
 31
0.0
  0
LINE
  5
2D6
330
24F
100
AcDbEntity
  8
ALL_ASSEM_MEMBER
  6
Continuous
 62
     0
100
AcDbLine
 10
207.8104324814
 20
198.4423870474
 30
0.0
 11
208.3104324814
 21
198.4423870474
 31
0.0
  0
LINE
  5
2D7
330
24F
100
AcDbEntity
  8
ALL_ASSEM_MEMBER
  6
Continuous
 62
     0
100
AcDbLine
 10
210.8104324814
 20
205.2451401529
 30
0.0
 11
211.3104324814
 21
205.2451401529
 31
0.0
  0
LINE
  5
2D8
330
24F
100
AcDbEntity
  8
ALL_ASSEM_MEMBER
  6
Continuous
 62
     0
100
AcDbLine
 10
210.8104324814
 20
205.9087237542
 30
0.0
 11
211.3104324814
 21
205.9087237542
 31
0.0
  0
LINE
  5
2D9
330
24F
100
AcDbEntity
  8
ALL_ASSEM_MEMBER
  6
Continuous
 62
     0
100
AcDbLine
 10
207.8104324814
 20
206.3423870474
 30
0.0
 11
208.3104324814
 21
206.3423870474
 31
0.0
  0
LINE
  5
2DA
330
24F
100
AcDbEntity
  8
ALL_ASSEM_MEMBER
  6
Continuous
 62
     0
100
AcDbLine
 10
208.3104324814
 20
206.5923870474
 30
0.0
 11
210.8104324814
 21
206.5923870474
 31
0.0
  0
LINE
  5
2DB
330
24F
100
AcDbEntity
  8
ALL_ASSEM_MEMBER
  6
Continuous
 62
     0
100
AcDbLine
 10
207.8104324814
 20
206.6423870474
 30
0.0
 11
208.3104324814
 21
206.6423870474
 31
0.0
  0
LINE
  5
2DC
330
24F
100
AcDbEntity
  8
ALL_ASSEM_MEMBER
  6
Continuous
 62
     0
100
AcDbLine
 10
207.8104324814
 20
207.1423870474
 30
0.0
 11
195.8104324814
 21
207.1423870474
 31
0.0
  0
LINE
  5
2DD
330
24F
100
AcDbEntity
  8
ALL_ASSEM_MEMBER
  6
Continuous
 62
     0
100
AcDbLine
 10
207.8104324814
 20
207.6423870474
 30
0.0
 11
195.8104324814
 21
207.6423870474
 31
0.0
  0
LINE
  5
2DE
330
24F
100
AcDbEntity
  8
ALL_ASSEM_MEMBER
  6
Continuous
 62
     0
100
AcDbLine
 10
191.0554324814
 20
208.3923870474
 30
0.0
 11
186.6104324814
 21
208.3923870474
 31
0.0
  0
LINE
  5
2DF
330
24F
100
AcDbEntity
  8
ALL_ASSEM_MEMBER
  6
Continuous
 62
     0
100
AcDbLine
 10
192.8104324814
 20
209.1423870474
 30
0.0
 11
195.8104324814
 21
209.1423870474
 31
0.0
  0
LINE
  5
2E0
330
24F
100
AcDbEntity
  8
ALL_ASSEM_MEMBER
  6
Continuous
 62
     0
100
AcDbLine
 10
192.8104324814
 20
209.6423870474
 30
0.0
 11
207.8104324814
 21
209.6423870474
 31
0.0
  0
LINE
  5
2E1
330
24F
100
AcDbEntity
  8
ALL_ASSEM_MEMBER
  6
Continuous
 62
     0
100
AcDbLine
 10
186.6104324814
 20
210.8923870474
 30
0.0
 11
192.8104324814
 21
210.8923870474
 31
0.0
  0
LINE
  5
2E2
330
24F
100
AcDbEntity
  8
ALL_ASSEM_MEMBER
  6
Continuous
 62
     0
100
AcDbLine
 10
198.5104324814
 20
210.9281987297
 30
0.0
 11
197.5104324814
 21
210.9281987297
 31
0.0
  0
LINE
  5
2E3
330
24F
100
AcDbEntity
  8
ALL_ASSEM_MEMBER
  6
Continuous
 62
     0
100
AcDbLine
 10
42.6797761849
 20
264.5665591374
 30
0.0
 11
42.7068541462
 21
264.5491518766
 31
0.0
  0
LINE
  5
2E4
330
24F
100
AcDbEntity
  8
ALL_ASSEM_MEMBER
  6
Continuous
 62
     0
100
AcDbLine
 10
42.6312929474
 20
264.4893951958
 30
0.0
 11
42.6582717623
 21
264.4719430298
 31
0.0
  0
LWPOLYLINE
  5
2E5
330
24F
100
AcDbEntity
  8
ALL_ASSEM_MEMBER
  6
Continuous
 62
     0
100
AcDbPolyline
 90
        5
 70
     0
 43
0.0
 10
82.0969097935
 20
264.4618323426
 10
82.0947308845
 20
264.4648331365
 10
82.0916434836
 20
264.4722430535
 10
82.0908093988
 20
264.4806471896
 10
82.092100044
 20
264.4893951958
  0
LINE
  5
2E7
330
24F
100
AcDbEntity
  8
ALL_ASSEM_MEMBER
  6
Continuous
 62
     7
100
AcDbLine
 10
129.8604324814
 20
275.9044517825
 30
0.0
 11
129.8604324814
 21
271.3809133764
 31
0.0
  0
LINE
  5
2E8
330
24F
100
AcDbEntity
  8
ALL_ASSEM_MEMBER
  6
Continuous
 62
     7
100
AcDbLine
 10
131.2604324814
 20
275.9044517825
 30
0.0
 11
131.2604324814
 21
271.3809133764
 31
0.0
  0
LINE
  5
2EA
330
24F
100
AcDbEntity
  8
ALL_ASSEM_MEMBER
  6
Continuous
 62
     0
100
AcDbLine
 10
134.9104347261
 20
153.3602213137
 30
0.0
 11
134.9104347261
 21
149.3809133764
 31
0.0
  0
LINE
  5
2EB
330
24F
100
AcDbEntity
  8
ALL_ASSEM_MEMBER
  6
Continuous
 62
     0
100
AcDbLine
 10
134.9152342528
 20
153.3602213137
 30
0.0
 11
134.9152342528
 21
149.3809133764
 31
0.0
  0
LWPOLYLINE
  5
2EC
330
24F
100
AcDbEntity
  8
ALL_ASSEM_MEMBER
  6
Continuous
 62
     0
100
AcDbPolyline
 90
        5
 70
     0
 43
0.0
 10
82.0879461169
 20
170.3144775253
 10
82.0926742373
 20
170.3177912743
 10
82.102131163
 20
170.3219594183
 10
82.1128887402
 20
170.3240436577
 10
82.1243788138
 20
170.3239904339
  0
LINE
  5
2ED
330
24F
100
AcDbEntity
  8
ALL_ASSEM_MEMBER
  6
Continuous
 62
     0
100
AcDbLine
 10
42.6081756725
 20
170.2725107794
 30
0.0
 11
42.6468126784
 21
170.2892878714
 31
0.0
  0
LINE
  5
2EE
330
24F
100
AcDbEntity
  8
ALL_ASSEM_MEMBER
  6
Continuous
 62
     0
100
AcDbLine
 10
42.6536449256
 20
170.165319968
 30
0.0
 11
42.692334695
 21
170.1820476036
 31
0.0
  0
LINE
  5
2EF
330
24F
100
AcDbEntity
  8
ALL_ASSEM_MEMBER
  6
Continuous
 62
     0
100
AcDbLine
 10
196.6104324814
 20
211.8423870474
 30
0.0
 11
194.4104324814
 21
211.8423870474
 31
0.0
  0
LINE
  5
2F1
330
24F
100
AcDbEntity
  8
ALL_ASSEM_MEMBER
  6
Continuous
 62
     0
100
AcDbLine
 10
187.8104324814
 20
217.8000110043
 30
0.0
 11
187.1757598937
 21
217.8000110043
 31
0.0
  0
LWPOLYLINE
  5
2F3
330
24F
100
AcDbEntity
  8
ALL_ASSEM_MEMBER
  6
Continuous
 62
     0
100
AcDbPolyline
 90
       33
 70
     0
 43
0.0
 10
195.5104324814
 20
211.537755558
 10
195.5719425938
 20
211.5366792322
 10
195.6329170467
 20
211.5334722596
 10
195.6930584259
 20
211.5281766658
 10
195.7521355828
 20
211.5208393151
 10
195.8099059145
 20
211.511517205
 10
195.8660750596
 20
211.5002924841
 10
195.9204144417
 20
211.4872572008
 10
195.9727782799
 20
211.4725005593
 10
196.0230127187
 20
211.4561279913
 10
196.071081684
 20
211.4382178863
 10
196.116916469
 20
211.4188643681
 10
196.1604862372
 20
211.3981528791
 10
196.2018419035
 20
211.3761277064
 10
196.2409526057
 20
211.3528703545
 10
196.2778059386
 20
211.3284559846
 10
196.3123916863
 20
211.3029610023
 10
196.3445477251
 20
211.2765965931
 10
196.374212303
 20
211.2495416006
 10
196.4014217231
 20
211.2219109675
 10
196.4261899032
 20
211.1938539749
 10
196.4485734052
 20
211.1654874922
 10
196.4687150599
 20
211.1368061372
 10
196.4866774072
 20
211.1078865957
 10
196.5025192487
 20
211.0788085717
 10
196.5163186191
 20
211.049607684
 10
196.5281793915
 20
211.0202202459
 10
196.5381317439
 20
210.9907104447
 10
196.5462042017
 20
210.9611542016
 10
196.552443599
 20
210.931550834
 10
196.5568893973
 20
210.9018468367
 10
196.5595488776
 20
210.8721045474
 10
196.5604324814
 20
210.8423871037
  0
LWPOLYLINE
  5
2F4
330
24F
100
AcDbEntity
  8
ALL_ASSEM_MEMBER
  6
Continuous
 62
     0
100
AcDbPolyline
 90
       32
 70
     0
 43
0.0
 10
198.0104324814
 20
210.6143779902
 10
198.0418765685
 20
210.6136980945
 10
198.0731080831
 20
210.6116698571
 10
198.1039916935
 20
210.6083178936
 10
198.1344265531
 20
210.6036713671
 10
198.1643430333
 20
210.5977580185
 10
198.1936125225
 20
210.5906221094
 10
198.2221174866
 20
210.5823174394
 10
198.2497998679
 20
210.572888905
 10
198.2766048216
 20
210.5623827481
 10
198.3024979395
 20
210.5508387727
 10
198.3274828684
 20
210.5382762775
 10
198.3515125814
 20
210.524735647
 10
198.374566798
 20
210.510243014
 10
198.3966583286
 20
210.49479687
 10
198.4177495894
 20
210.4784224605
 10
198.4378106839
 20
210.4611378772
 10
198.4567641391
 20
210.4430056783
 10
198.4745350714
 20
210.424102246
 10
198.4910519338
 20
210.404520847
 10
198.506245654
 20
210.3843784846
 10
198.5200868983
 20
210.3637667316
 10
198.5325985104
 20
210.3427058754
 10
198.5437639985
 20
210.321278227
 10
198.5535747992
 20
210.2995688456
 10
198.5620521396
 20
210.2776042101
 10
198.5692163736
 20
210.2553931178
 10
198.5750635273
 20
210.2330087906
 10
198.579599291
 20
210.2105068882
 10
198.5828408276
 20
210.187863868
 10
198.5847853107
 20
210.1651337692
 10
198.5854324814
 20
210.1423870892
  0
LINE
  5
2F5
330
24F
100
AcDbEntity
  8
ALL_ASSEM_MEMBER
  6
Continuous
 62
     0
100
AcDbLine
 10
47.0604324814
 20
271.3809133764
 30
0.0
 11
47.0875104427
 21
271.3635061156
 31
0.0
  0
LWPOLYLINE
  5
2F6
330
24F
100
AcDbEntity
  8
ALL_ASSEM_MEMBER
  6
Continuous
 62
     0
100
AcDbPolyline
 90
        3
 70
     0
 43
0.0
 10
177.5220198182
 20
170.323645985
 10
177.5242187695
 20
170.321845125
 10
177.5257430897
 20
170.3175767706
  0
LINE
  5
2F7
330
24F
100
AcDbEntity
  8
ALL_ASSEM_MEMBER
  6
Continuous
 62
     0
100
AcDbLine
 10
82.092100044
 20
264.4893951958
 30
0.0
 11
82.1295274404
 21
264.4508323205
 31
0.0
  0
LWPOLYLINE
  5
2F8
330
24F
100
AcDbEntity
  8
ALL_ASSEM_MEMBER
  6
Continuous
 62
     0
100
AcDbPolyline
 90
        4
 70
     0
 43
0.0
 10
138.0930712463
 20
264.3074879048
 10
138.0898751129
 20
264.3548120748
 10
138.0804022853
 20
264.400424997
 10
138.064995302
 20
264.4426773027
  0
LINE
  5
2F9
330
24F
100
AcDbEntity
  8
ALL_ASSEM_MEMBER
  6
Continuous
 62
     0
100
AcDbLine
 10
135.02130027
 20
153.3602213137
 30
0.0
 11
135.02130027
 21
149.3809133764
 31
0.0
  0
LINE
  5
2FA
330
24F
100
AcDbEntity
  8
ALL_ASSEM_MEMBER
  6
Continuous
 62
     0
100
AcDbLine
 10
137.916294551
 20
170.165319968
 30
0.0
 11
137.916294551
 21
264.5665591374
 31
0.0
  0
LINE
  5
2FB
330
24F
100
AcDbEntity
  8
ALL_ASSEM_MEMBER
  6
Continuous
 62
     0
100
AcDbLine
 10
138.0930712463
 20
170.4326435332
 30
0.0
 11
138.0930712463
 21
264.3074879048
 31
0.0
  0
LINE
  5
2FC
330
24F
100
AcDbEntity
  8
ALL_ASSEM_MEMBER
  6
Continuous
 62
     0
100
AcDbLine
 10
134.9165832194
 20
153.3939564797
 30
0.0
 11
134.9152342528
 21
153.3602213137
 31
0.0
  0
LWPOLYLINE
  5
2FD
330
24F
100
AcDbEntity
  8
ALL_ASSEM_MEMBER
  6
Continuous
 62
     0
100
AcDbPolyline
 90
        4
 70
     0
 43
0.0
 10
138.0930712463
 20
170.4326435332
 10
138.0914382774
 20
170.3987414658
 10
138.0865695398
 20
170.3654657368
 10
138.0785549831
 20
170.3334311131
  0
LINE
  5
2FE
330
24F
100
AcDbEntity
  8
ALL_ASSEM_MEMBER
  6
Continuous
 62
     0
100
AcDbLine
 10
134.9206257329
 20
153.4271983461
 30
0.0
 11
134.9165832194
 21
153.3939564797
 31
0.0
  0
LINE
  5
2FF
330
24F
100
AcDbEntity
  8
ALL_ASSEM_MEMBER
  6
Continuous
 62
     0
100
AcDbLine
 10
82.0748708866
 20
170.2725107794
 30
0.0
 11
82.1437120525
 21
170.3191258347
 31
0.0
  0
LINE
  5
300
330
24F
100
AcDbEntity
  8
ALL_ASSEM_MEMBER
  6
Continuous
 62
     0
100
AcDbLine
 10
82.0937048679
 20
170.165319968
 30
0.0
 11
82.1910611272
 21
170.2248474201
 31
0.0
  0
LWPOLYLINE
  5
301
330
24F
100
AcDbEntity
  8
ALL_ASSEM_MEMBER
  6
Continuous
 62
     0
100
AcDbPolyline
 90
        4
 70
     0
 43
0.0
 10
42.5988564848
 20
170.3236455937
 10
42.5999927346
 20
170.3240436577
 10
42.6047828338
 20
170.3239904339
 10
42.6108971432
 20
170.321845125
  0
LINE
  5
302
330
24F
100
AcDbEntity
  8
ALL_ASSEM_MEMBER
  6
Continuous
 62
     0
100
AcDbLine
 10
187.8104324814
 20
222.8000110043
 30
0.0
 11
187.1757598937
 21
222.8000110043
 31
0.0
  0
LINE
  5
303
330
24F
100
AcDbEntity
  8
ALL_ASSEM_MEMBER
  6
Continuous
 62
     0
100
AcDbLine
 10
187.8104324814
 20
223.3000110043
 30
0.0
 11
187.1757598937
 21
223.3000110043
 31
0.0
  0
LINE
  5
304
330
24F
100
AcDbEntity
  8
ALL_ASSEM_MEMBER
  6
Continuous
 62
     0
100
AcDbLine
 10
82.1121824586
 20
264.5665591374
 30
0.0
 11
82.1868753531
 21
264.4986530417
 31
0.0
  0
LWPOLYLINE
  5
305
330
24F
100
AcDbEntity
  8
ALL_ASSEM_MEMBER
  6
Continuous
 62
     0
100
AcDbPolyline
 90
        4
 70
     0
 43
0.0
 10
134.9138360981
 20
153.3999062818
 10
134.911948906
 20
153.3870121267
 10
134.9108135791
 20
153.3737153801
 10
134.9104347261
 20
153.3602213137
  0
LWPOLYLINE
  5
306
330
24F
100
AcDbEntity
  8
ALL_ASSEM_MEMBER
  6
Continuous
 62
     0
100
AcDbPolyline
 90
        4
 70
     0
 43
0.0
 10
135.024701642
 20
153.3999062818
 10
135.0228144499
 20
153.3870121267
 10
135.021679123
 20
153.3737153801
 10
135.02130027
 20
153.3602213137
  0
LWPOLYLINE
  5
307
330
24F
100
AcDbEntity
  8
ALL_ASSEM_MEMBER
  6
Continuous
 62
     0
100
AcDbPolyline
 90
        3
 70
     0
 43
0.0
 10
137.9351285323
 20
170.2725107794
 10
137.9254899903
 20
170.2172123074
 10
137.916294551
 20
170.165319968
  0
LWPOLYLINE
  5
308
330
24F
100
AcDbEntity
  8
ALL_ASSEM_MEMBER
  6
Continuous
 62
     0
100
AcDbPolyline
 90
        3
 70
     0
 43
0.0
 10
138.0271600949
 20
170.165319968
 10
138.0363300334
 20
170.2170670785
 10
138.0459940762
 20
170.2725107794
  0
LINE
  5
309
330
24F
100
AcDbEntity
  8
ALL_ASSEM_MEMBER
  6
Continuous
 62
     0
100
AcDbLine
 10
134.9138360981
 20
153.3999062818
 30
0.0
 11
137.916294551
 21
170.165319968
 31
0.0
  0
LINE
  5
30A
330
24F
100
AcDbEntity
  8
ALL_ASSEM_MEMBER
  6
Continuous
 62
     0
100
AcDbLine
 10
134.9273453828
 20
153.4594337339
 30
0.0
 11
137.9298038356
 21
170.2248474201
 31
0.0
  0
LINE
  5
30B
330
24F
100
AcDbEntity
  8
ALL_ASSEM_MEMBER
  6
Continuous
 62
     0
100
AcDbLine
 10
135.024701642
 20
153.3999062818
 30
0.0
 11
138.0271600949
 21
170.165319968
 31
0.0
  0
LINE
  5
30C
330
24F
100
AcDbEntity
  8
ALL_ASSEM_MEMBER
  6
Continuous
 62
     0
100
AcDbLine
 10
134.9273453828
 20
153.4594337339
 30
0.0
 11
134.9206257329
 21
153.4271983461
 31
0.0
  0
LINE
  5
30D
330
24F
100
AcDbEntity
  8
ALL_ASSEM_MEMBER
  6
Continuous
 62
     0
100
AcDbLine
 10
137.9440843441
 20
170.2765945306
 30
0.0
 11
137.9503492301
 21
170.3014059781
 31
0.0
  0
LINE
  5
30E
330
24F
100
AcDbEntity
  8
ALL_ASSEM_MEMBER
  6
Continuous
 62
     0
100
AcDbLine
 10
137.9298038356
 20
170.2248474201
 30
0.0
 11
137.9440843441
 21
170.2765945306
 31
0.0
  0
LWPOLYLINE
  5
30F
330
24F
100
AcDbEntity
  8
ALL_ASSEM_MEMBER
  6
Continuous
 62
     0
100
AcDbPolyline
 90
        3
 70
     0
 43
0.0
 10
137.9351285323
 20
170.2725107794
 10
137.9383436165
 20
170.2835280276
 10
137.9440254175
 20
170.2939313702
  0
LINE
  5
310
330
24F
100
AcDbEntity
  8
ALL_ASSEM_MEMBER
  6
Continuous
 62
     0
100
AcDbLine
 10
177.505145375
 20
264.4543864814
 30
0.0
 11
177.5033947887
 21
264.4514134309
 31
0.0
  0
LINE
  5
311
330
24F
100
AcDbEntity
  8
ALL_ASSEM_MEMBER
  6
Continuous
 62
     0
100
AcDbLine
 10
49.9022208429
 20
153.3999062818
 30
0.0
 11
49.9409106123
 21
153.4166339174
 31
0.0
  0
LINE
  5
312
330
24F
100
AcDbEntity
  8
ALL_ASSEM_MEMBER
  6
Continuous
 62
     0
100
AcDbLine
 10
187.8104324814
 20
228.3000110043
 30
0.0
 11
187.1757598937
 21
228.3000110043
 31
0.0
  0
LINE
  5
313
330
24F
100
AcDbEntity
  8
ALL_ASSEM_MEMBER
  6
Continuous
 62
     0
100
AcDbLine
 10
187.8104324814
 20
228.8000110043
 30
0.0
 11
187.1757598937
 21
228.8000110043
 31
0.0
  0
LINE
  5
316
330
24F
100
AcDbEntity
  8
ALL_ASSEM_MEMBER
  6
Continuous
 62
     0
100
AcDbLine
 10
83.9267097087
 20
271.3809133764
 30
0.0
 11
84.0010910413
 21
271.3132905333
 31
0.0
  0
LWPOLYLINE
  5
318
330
24F
100
AcDbEntity
  8
ALL_ASSEM_MEMBER
  6
Continuous
 62
     0
100
AcDbPolyline
 90
        5
 70
     0
 43
0.0
 10
138.0287649187
 20
264.4893951958
 10
138.0300526934
 20
264.4807330878
 10
138.0292811712
 20
264.4724904317
 10
138.0262893804
 20
264.4650878084
 10
138.0239507832
 20
264.4618316343
  0
LINE
  5
319
330
24F
100
AcDbEntity
  8
ALL_ASSEM_MEMBER
  6
Continuous
 62
     0
100
AcDbLine
 10
138.0785549831
 20
170.3334311131
 30
0.0
 11
138.0271600949
 21
170.165319968
 31
0.0
  0
LINE
  5
31A
330
24F
100
AcDbEntity
  8
ALL_ASSEM_MEMBER
  6
Continuous
 62
     0
100
AcDbLine
 10
185.6584324814
 20
234.8000110043
 30
0.0
 11
184.8104324814
 21
233.9520110043
 31
0.0
  0
LINE
  5
31B
330
24F
100
AcDbEntity
  8
ALL_ASSEM_MEMBER
  6
Continuous
 62
     0
100
AcDbLine
 10
85.0961633207
 20
153.3999062818
 30
0.0
 11
85.19351958
 21
153.4594337339
 31
0.0
  0
LINE
  5
31C
330
24F
100
AcDbEntity
  8
ALL_ASSEM_MEMBER
  6
Continuous
 62
     0
100
AcDbLine
 10
187.8104324814
 20
233.8000110043
 30
0.0
 11
187.1757598937
 21
233.8000110043
 31
0.0
  0
LINE
  5
31D
330
24F
100
AcDbEntity
  8
ALL_ASSEM_MEMBER
  6
Continuous
 62
     0
100
AcDbLine
 10
185.6584324814
 20
234.8000110043
 30
0.0
 11
187.8104324814
 21
234.8000110043
 31
0.0
  0
LINE
  5
31E
330
24F
100
AcDbEntity
  8
ALL_ASSEM_MEMBER
  6
Continuous
 62
     0
100
AcDbLine
 10
136.1017673009
 20
271.3809133764
 30
0.0
 11
137.916294551
 21
264.5665591374
 31
0.0
  0
LINE
  5
31F
330
24F
100
AcDbEntity
  8
ALL_ASSEM_MEMBER
  6
Continuous
 62
     0
100
AcDbLine
 10
136.1941552541
 20
271.3809133764
 30
0.0
 11
138.0086825042
 21
264.5665591374
 31
0.0
  0
LWPOLYLINE
  5
320
330
24F
100
AcDbEntity
  8
ALL_ASSEM_MEMBER
  6
Continuous
 62
     0
100
AcDbPolyline
 90
        3
 70
     0
 43
0.0
 10
137.916294551
 20
264.5665591374
 10
137.9259513526
 20
264.5298229576
 10
137.9363769655
 20
264.4893951958
  0
LWPOLYLINE
  5
321
330
24F
100
AcDbEntity
  8
ALL_ASSEM_MEMBER
  6
Continuous
 62
     0
100
AcDbPolyline
 90
        3
 70
     0
 43
0.0
 10
138.0287649187
 20
264.4893951958
 10
138.0183817329
 20
264.5296598003
 10
138.0086825042
 20
264.5665591374
  0
LWPOLYLINE
  5
322
330
24F
100
AcDbEntity
  8
ALL_ASSEM_MEMBER
  6
Continuous
 62
     0
100
AcDbPolyline
 90
        5
 70
     0
 43
0.0
 10
137.9440254175
 20
170.2939313702
 10
137.9520930552
 20
170.3034671412
 10
137.9621377418
 20
170.3115937261
 10
137.9733309824
 20
170.3177912743
 10
137.9851237558
 20
170.3219594183
  0
LINE
  5
323
330
24F
100
AcDbEntity
  8
ALL_ASSEM_MEMBER
  6
Continuous
 62
     0
100
AcDbLine
 10
187.8104324814
 20
192.3923870474
 30
0.0
 11
184.8104324814
 21
195.3923870474
 31
0.0
  0
LINE
  5
324
330
24F
100
AcDbEntity
  8
ALL_ASSEM_MEMBER
  6
Continuous
 62
     0
100
AcDbLine
 10
185.8104324814
 20
194.6923870474
 30
0.0
 11
186.6104324814
 21
193.8923870474
 31
0.0
  0
LINE
  5
325
330
24F
100
AcDbEntity
  8
ALL_ASSEM_MEMBER
  6
Continuous
 62
     0
100
AcDbLine
 10
138.064995302
 20
264.4426773027
 30
0.0
 11
138.0086825042
 21
264.5665591374
 31
0.0
  0
LINE
  5
326
330
24F
100
AcDbEntity
  8
ALL_ASSEM_MEMBER
  6
Continuous
 62
     0
100
AcDbLine
 10
170.1645104695
 20
153.3602213137
 30
0.0
 11
170.1645104695
 21
149.3809133764
 31
0.0
  0
LINE
  5
327
330
24F
100
AcDbEntity
  8
ALL_ASSEM_MEMBER
  6
Continuous
 62
     0
100
AcDbLine
 10
170.2104324814
 20
153.3602213137
 30
0.0
 11
170.2104324814
 21
149.3809133764
 31
0.0
  0
LINE
  5
328
330
24F
100
AcDbEntity
  8
ALL_ASSEM_MEMBER
  6
Continuous
 62
     0
100
AcDbLine
 10
186.6104324814
 20
210.8923870474
 30
0.0
 11
185.8104324814
 21
210.0923870474
 31
0.0
  0
LWPOLYLINE
  5
329
330
24F
100
AcDbEntity
  8
ALL_ASSEM_MEMBER
  6
Continuous
 62
     0
100
AcDbPolyline
 90
        3
 70
     0
 43
0.0
 10
177.5033947887
 20
264.4514134309
 10
177.5002923723
 20
264.4505568666
 10
177.4953045374
 20
264.4513646021
  0
LINE
  5
32B
330
24F
100
AcDbEntity
  8
ALL_ASSEM_MEMBER
  6
Continuous
 62
     0
100
AcDbLine
 10
187.8104324814
 20
224.2587972559
 30
0.0
 11
188.4626272831
 21
223.8866409001
 31
0.0
  0
LINE
  5
32C
330
24F
100
AcDbEntity
  8
ALL_ASSEM_MEMBER
  6
Continuous
 62
     0
100
AcDbLine
 10
188.9582376797
 20
224.7551858527
 30
0.0
 11
187.8104324814
 21
225.4101481411
 31
0.0
  0
LINE
  5
32F
330
24F
100
AcDbEntity
  8
ALL_ASSEM_MEMBER
  6
Continuous
 62
     0
100
AcDbLine
 10
184.8104324814
 20
219.534869887
 30
0.0
 11
177.5604324814
 21
223.7206593386
 31
0.0
  0
LWPOLYLINE
  5
330
330
24F
100
AcDbEntity
  8
ALL_ASSEM_MEMBER
  6
Continuous
 62
     0
100
AcDbPolyline
 90
       24
 70
     0
 43
0.0
 10
188.4626272831
 20
223.8866409001
 10
188.8869735722
 20
223.6336973452
 10
189.3296498305
 20
223.346371851
 10
189.7796049344
 20
223.0288054321
 10
190.2338557719
 20
222.6806487459
 10
190.6894575466
 20
222.3015986643
 10
191.1434397476
 20
221.891329708
 10
191.5927478255
 20
221.4494870402
 10
192.0333612707
 20
220.9765752046
 10
192.4555537796
 20
220.4800990535
 10
192.8485787306
 20
219.9717912064
 10
193.2040057882
 20
219.4644045123
 10
193.5201296319
 20
218.9644252562
 10
193.7994286243
 20
218.4725375707
 10
194.0442249227
 20
217.9889413226
 10
194.2564251591
 20
217.5140519273
 10
194.4370112982
 20
217.0502008453
 10
194.5870818379
 20
216.600173069
 10
194.7084985968
 20
216.1654043741
 10
194.8036239897
 20
215.7454200187
 10
194.8746366284
 20
215.3392566537
 10
194.9234205788
 20
214.945826798
 10
194.9515745244
 20
214.564054535
 10
194.9604412424
 20
214.2009133764
  0
LINE
  5
331
330
24F
100
AcDbEntity
  8
ALL_ASSEM_MEMBER
  6
Continuous
 62
     0
100
AcDbLine
 10
185.8104324814
 20
209.1923870474
 30
0.0
 11
186.6104324814
 21
208.3923870474
 31
0.0
  0
LINE
  5
333
330
24F
100
AcDbEntity
  8
ALL_ASSEM_MEMBER
  6
Continuous
 62
     0
100
AcDbLine
 10
172.8104324814
 20
147.8809133764
 30
0.0
 11
172.8104324814
 21
144.3809133764
 31
0.0
  0
LINE
  5
334
330
24F
100
AcDbEntity
  8
ALL_ASSEM_MEMBER
  6
Continuous
 62
     0
100
AcDbLine
 10
177.4872091767
 20
170.4326435332
 30
0.0
 11
177.4872091767
 21
264.3074879048
 31
0.0
  0
LINE
  5
335
330
24F
100
AcDbEntity
  8
ALL_ASSEM_MEMBER
  6
Continuous
 62
     0
100
AcDbLine
 10
177.5604324814
 20
264.3074879048
 30
0.0
 11
177.5604324814
 21
170.4326435332
 31
0.0
  0
LWPOLYLINE
  5
338
330
24F
100
AcDbEntity
  8
ALL_ASSEM_MEMBER
  6
Continuous
 62
     0
100
AcDbPolyline
 90
        5
 70
     0
 43
0.0
 10
82.126645832
 20
264.4505568666
 10
82.1166586558
 20
264.4513646021
 10
82.107549435
 20
264.4540918305
 10
82.1000698072
 20
264.4586846815
 10
82.0969097935
 20
264.4618323426
  0
LWPOLYLINE
  5
33A
330
24F
100
AcDbEntity
  8
ALL_ASSEM_MEMBER
  6
Continuous
 62
     0
100
AcDbPolyline
 90
        4
 70
     0
 43
0.0
 10
177.4872091767
 20
264.3074879048
 10
177.4840130433
 20
264.3548120748
 10
177.4745402157
 20
264.400424997
 10
177.4591332324
 20
264.4426773027
  0
LINE
  5
33B
330
24F
100
AcDbEntity
  8
ALL_ASSEM_MEMBER
  6
Continuous
 62
     0
100
AcDbLine
 10
184.8104324814
 20
195.3923870474
 30
0.0
 11
184.8104324814
 21
233.9520110043
 31
0.0
  0
LWPOLYLINE
  5
33C
330
24F
100
AcDbEntity
  8
ALL_ASSEM_MEMBER
  6
Continuous
 62
     0
100
AcDbPolyline
 90
        3
 70
     0
 43
0.0
 10
177.5257430897
 20
170.3175767706
 10
177.525578505
 20
170.3111720006
 10
177.5238432699
 20
170.303002019
  0
LWPOLYLINE
  5
33D
330
24F
100
AcDbEntity
  8
ALL_ASSEM_MEMBER
  6
Continuous
 62
     0
100
AcDbPolyline
 90
        4
 70
     0
 43
0.0
 10
177.4872091767
 20
170.4326435332
 10
177.4855762078
 20
170.3987414658
 10
177.4807074703
 20
170.3654657368
 10
177.4726929135
 20
170.3334311131
  0
LINE
  5
33E
330
24F
100
AcDbEntity
  8
ALL_ASSEM_MEMBER
  6
Continuous
 62
     0
100
AcDbLine
 10
186.6104324814
 20
196.3923870474
 30
0.0
 11
185.8104324814
 21
195.5923870474
 31
0.0
  0
LWPOLYLINE
  5
33F
330
24F
100
AcDbEntity
  8
ALL_ASSEM_MEMBER
  6
Continuous
 62
     0
100
AcDbPolyline
 90
        4
 70
     0
 43
0.0
 10
177.5102109252
 20
170.3219594183
 10
177.5163575538
 20
170.3240436577
 10
177.5210734042
 20
170.3239904339
 10
177.5220198182
 20
170.323645985
  0
LINE
  5
340
330
24F
100
AcDbEntity
  8
ALL_ASSEM_MEMBER
  6
Continuous
 62
     0
100
AcDbLine
 10
42.5604324814
 20
264.3074879048
 30
0.0
 11
109.7604324814
 21
264.3074879048
 31
0.0
  0
LINE
  5
341
330
24F
100
AcDbEntity
  8
ALL_ASSEM_MEMBER
  6
Continuous
 62
     0
100
AcDbLine
 10
110.0754324814
 20
264.3074879048
 30
0.0
 11
177.5604324814
 21
264.3074879048
 31
0.0
  0
LINE
  5
342
330
24F
100
AcDbEntity
  8
ALL_ASSEM_MEMBER
  6
Continuous
 62
     0
100
AcDbLine
 10
42.6001378625
 20
264.4426773027
 30
0.0
 11
109.7604324814
 21
264.4426773027
 31
0.0
  0
LINE
  5
343
330
24F
100
AcDbEntity
  8
ALL_ASSEM_MEMBER
  6
Continuous
 62
     0
100
AcDbLine
 10
110.0754324814
 20
264.4426773027
 30
0.0
 11
177.5207271002
 21
264.4426773027
 31
0.0
  0
LWPOLYLINE
  5
344
330
24F
100
AcDbEntity
  8
ALL_ASSEM_MEMBER
  6
Continuous
 62
     0
100
AcDbPolyline
 90
        8
 70
     0
 43
0.0
 10
137.9954447686
 20
264.4505568666
 10
137.9848558366
 20
264.4513646021
 10
137.973742642
 20
264.4540918305
 10
137.9629860577
 20
264.4586846815
 10
137.9534555003
 20
264.4648331365
 10
137.9456187756
 20
264.4722430535
 10
137.9398048367
 20
264.4806471896
 10
137.9363769655
 20
264.4893951958
  0
LINE
  5
346
330
24F
100
AcDbEntity
  8
ALL_ASSEM_MEMBER
  6
Continuous
 62
     0
100
AcDbLine
 10
187.5604324814
 20
235.2676647224
 30
0.0
 11
177.5604324814
 21
241.0411674143
 31
0.0
  0
LINE
  5
347
330
24F
100
AcDbEntity
  8
ALL_ASSEM_MEMBER
  6
Continuous
 62
     0
100
AcDbLine
 10
185.8104324814
 20
210.0923870474
 30
0.0
 11
185.8104324814
 21
209.1923870474
 31
0.0
  0
LINE
  5
348
330
24F
100
AcDbEntity
  8
ALL_ASSEM_MEMBER
  6
Continuous
 62
     0
100
AcDbLine
 10
185.8104324814
 20
195.5923870474
 30
0.0
 11
185.8104324814
 21
194.6923870474
 31
0.0
  0
LINE
  5
349
330
24F
100
AcDbEntity
  8
ALL_ASSEM_MEMBER
  6
Continuous
 62
     0
100
AcDbLine
 10
187.1757598937
 20
233.8000110043
 30
0.0
 11
187.1757598937
 21
228.8000110043
 31
0.0
  0
LINE
  5
34A
330
24F
100
AcDbEntity
  8
ALL_ASSEM_MEMBER
  6
Continuous
 62
     0
100
AcDbLine
 10
187.1757598937
 20
228.3000110043
 30
0.0
 11
187.1757598937
 21
223.3000110043
 31
0.0
  0
LINE
  5
34B
330
24F
100
AcDbEntity
  8
ALL_ASSEM_MEMBER
  6
Continuous
 62
     0
100
AcDbLine
 10
187.1757598937
 20
222.8000110043
 30
0.0
 11
187.1757598937
 21
217.8000110043
 31
0.0
  0
LINE
  5
34C
330
24F
100
AcDbEntity
  8
ALL_ASSEM_MEMBER
  6
Continuous
 62
     0
100
AcDbLine
 10
187.4504324814
 20
228.8000110043
 30
0.0
 11
187.4504324814
 21
228.3000110043
 31
0.0
  0
LINE
  5
34D
330
24F
100
AcDbEntity
  8
ALL_ASSEM_MEMBER
  6
Continuous
 62
     0
100
AcDbLine
 10
187.4504324814
 20
223.3000110043
 30
0.0
 11
187.4504324814
 21
222.8000110043
 31
0.0
  0
LINE
  5
352
330
24F
100
AcDbEntity
  8
ALL_ASSEM_MEMBER
  6
Continuous
 62
     0
100
AcDbLine
 10
187.5604324814
 20
234.8000110043
 30
0.0
 11
187.5604324814
 21
235.2676647224
 31
0.0
  0
LINE
  5
353
330
24F
100
AcDbEntity
  8
ALL_ASSEM_MEMBER
  6
Continuous
 62
     0
100
AcDbLine
 10
187.6104324814
 20
217.8000110043
 30
0.0
 11
187.6104324814
 21
222.8000110043
 31
0.0
  0
LINE
  5
354
330
24F
100
AcDbEntity
  8
ALL_ASSEM_MEMBER
  6
Continuous
 62
     0
100
AcDbLine
 10
187.6104324814
 20
223.3000110043
 30
0.0
 11
187.6104324814
 21
228.3000110043
 31
0.0
  0
LINE
  5
355
330
24F
100
AcDbEntity
  8
ALL_ASSEM_MEMBER
  6
Continuous
 62
     0
100
AcDbLine
 10
187.6104324814
 20
228.8000110043
 30
0.0
 11
187.6104324814
 21
233.8000110043
 31
0.0
  0
LINE
  5
356
330
24F
100
AcDbEntity
  8
ALL_ASSEM_MEMBER
  6
Continuous
 62
     0
100
AcDbLine
 10
187.8104324814
 20
208.3923870474
 30
0.0
 11
187.8104324814
 21
196.3923870474
 31
0.0
  0
LINE
  5
357
330
24F
100
AcDbEntity
  8
ALL_ASSEM_MEMBER
  6
Continuous
 62
     0
100
AcDbLine
 10
187.8104324814
 20
193.8923870474
 30
0.0
 11
187.8104324814
 21
192.3923870474
 31
0.0
  0
LINE
  5
358
330
24F
100
AcDbEntity
  8
ALL_ASSEM_MEMBER
  6
Continuous
 62
     0
100
AcDbLine
 10
187.8104324814
 20
210.8923870474
 30
0.0
 11
187.8104324814
 21
234.8000110043
 31
0.0
  0
LINE
  5
359
330
24F
100
AcDbEntity
  8
ALL_ASSEM_MEMBER
  6
Continuous
 62
     0
100
AcDbLine
 10
191.5104324814
 20
196.8473870474
 30
0.0
 11
191.5104324814
 21
207.9373870474
 31
0.0
  0
LWPOLYLINE
  5
35A
330
24F
100
AcDbEntity
  8
ALL_ASSEM_MEMBER
  6
Continuous
 62
     0
100
AcDbPolyline
 90
       59
 70
     0
 43
0.0
 10
193.4269104811
 20
211.02210888
 10
193.4329714734
 20
211.051797755
 10
193.4400269847
 20
211.081304269
 10
193.4481326678
 20
211.1106945092
 10
193.4573272597
 20
211.1399208888
 10
193.4676405045
 20
211.1688971389
 10
193.4791084361
 20
211.1975515733
 10
193.4918022134
 20
211.225878966
 10
193.5057435378
 20
211.253743248
 10
193.5209354557
 20
211.280987131
 10
193.5374003594
 20
211.3075022131
 10
193.5550966928
 20
211.3330938739
 10
193.5739315997
 20
211.357540879
 10
193.5938588216
 20
211.380727375
 10
193.6148517439
 20
211.4025771454
 10
193.6368646941
 20
211.4230047857
 10
193.6598987448
 20
211.4419744524
 10
193.6839297778
 20
211.459426078
 10
193.7089269249
 20
211.4752975987
 10
193.734872233
 20
211.4895361466
 10
193.7616973008
 20
211.5020637168
 10
193.7893382007
 20
211.5128139197
 10
193.8176804555
 20
211.5217114548
 10
193.8466137128
 20
211.52869809
 10
193.8760094879
 20
211.5337241021
 10
193.9057136838
 20
211.5367506223
 10
193.9355921898
 20
211.537755529
 10
193.9654857614
 20
211.5367278477
 10
193.9952027701
 20
211.5336766237
 10
194.0245866073
 20
211.5286288573
 10
194.053504886
 20
211.5216224348
 10
194.0818056239
 20
211.5127159035
 10
194.1093682201
 20
211.5019779002
 10
194.136144069
 20
211.4894593131
 10
194.1620689333
 20
211.4752201652
 10
194.1870809471
 20
211.4593269289
 10
194.2111119395
 20
211.4418616006
 10
194.234132066
 20
211.4228894384
 10
194.2561377402
 20
211.4024546606
 10
194.2771265011
 20
211.3805948228
 10
194.2970444967
 20
211.3574042221
 10
194.3158653213
 20
211.3329608428
 10
194.3335469895
 20
211.3073764262
 10
194.3500094338
 20
211.2808512417
 10
194.3652126834
 20
211.253570407
 10
194.379150897
 20
211.2256927405
 10
194.3918159423
 20
211.1974112523
 10
194.4032617159
 20
211.1687984417
 10
194.4135357663
 20
211.139926673
 10
194.4227043733
 20
211.110789194
 10
194.4308052754
 20
211.0814314063
 10
194.4378665935
 20
211.0519191949
 10
194.4439349845
 20
211.0222130245
 10
194.4490267398
 20
210.9923759133
 10
194.4531563214
 20
210.9624871465
 10
194.4563472176
 20
210.9325538218
 10
194.4586206967
 20
210.9025169225
 10
194.4599806576
 20
210.8724395343
 10
194.4604324814
 20
210.8423871039
  0
LINE
  5
35B
330
24F
100
AcDbEntity
  8
ALL_ASSEM_MEMBER
  6
Continuous
 62
     0
100
AcDbLine
 10
177.4726929135
 20
170.3334311131
 30
0.0
 11
177.4212980253
 21
170.165319968
 31
0.0
  0
LWPOLYLINE
  5
35C
330
24F
100
AcDbEntity
  8
ALL_ASSEM_MEMBER
  6
Continuous
 62
     0
100
AcDbPolyline
 90
        4
 70
     0
 43
0.0
 10
177.5238432699
 20
170.303002019
 10
177.5208894685
 20
170.2935909011
 10
177.5170551747
 20
170.2832724448
 10
177.5126892903
 20
170.2725107794
  0
LWPOLYLINE
  5
35D
330
24F
100
AcDbEntity
  8
ALL_ASSEM_MEMBER
  6
Continuous
 62
     0
100
AcDbPolyline
 90
        4
 70
     0
 43
0.0
 10
170.172722108
 20
153.3999062818
 10
170.1681660232
 20
153.3870121267
 10
170.1654251014
 20
153.3737153801
 10
170.1645104695
 20
153.3602213137
  0
LWPOLYLINE
  5
35E
330
24F
100
AcDbEntity
  8
ALL_ASSEM_MEMBER
  6
Continuous
 62
     0
100
AcDbPolyline
 90
        3
 70
     0
 43
0.0
 10
177.4667672785
 20
170.2725107794
 10
177.4434977795
 20
170.2172123074
 10
177.4212980253
 20
170.165319968
  0
LINE
  5
35F
330
24F
100
AcDbEntity
  8
ALL_ASSEM_MEMBER
  6
Continuous
 62
     0
100
AcDbLine
 10
177.4893582271
 20
170.2170670785
 30
0.0
 11
177.5126892903
 21
170.2725107794
 31
0.0
  0
LINE
  5
360
330
24F
100
AcDbEntity
  8
ALL_ASSEM_MEMBER
  6
Continuous
 62
     0
100
AcDbLine
 10
177.4672200372
 20
170.165319968
 30
0.0
 11
177.4893582271
 21
170.2170670785
 31
0.0
  0
LINE
  5
361
330
24F
100
AcDbEntity
  8
ALL_ASSEM_MEMBER
  6
Continuous
 62
     0
100
AcDbLine
 10
170.172722108
 20
153.3999062818
 30
0.0
 11
177.4212980253
 21
170.165319968
 31
0.0
  0
LINE
  5
362
330
24F
100
AcDbEntity
  8
ALL_ASSEM_MEMBER
  6
Continuous
 62
     0
100
AcDbLine
 10
177.5399033852
 20
170.3334311131
 30
0.0
 11
177.5134264948
 21
170.2721920468
 31
0.0
  0
LINE
  5
363
330
24F
100
AcDbEntity
  8
ALL_ASSEM_MEMBER
  6
Continuous
 62
     0
100
AcDbLine
 10
170.2186441199
 20
153.3999062818
 30
0.0
 11
177.4672200372
 21
170.165319968
 31
0.0
  0
LWPOLYLINE
  5
364
330
24F
100
AcDbEntity
  8
ALL_ASSEM_MEMBER
  6
Continuous
 62
     0
100
AcDbPolyline
 90
        4
 70
     0
 43
0.0
 10
177.4667672785
 20
170.2725107794
 10
177.472198481
 20
170.2835280276
 10
177.4789401524
 20
170.2939313702
 10
177.4867385595
 20
170.3034671412
  0
LWPOLYLINE
  5
365
330
24F
100
AcDbEntity
  8
ALL_ASSEM_MEMBER
  6
Continuous
 62
     0
100
AcDbPolyline
 90
        3
 70
     0
 43
0.0
 10
177.4867385595
 20
170.3034671412
 10
177.4950184153
 20
170.3115937261
 10
177.5029903507
 20
170.3177912743
  0
LINE
  5
366
330
24F
100
AcDbEntity
  8
ALL_ASSEM_MEMBER
  6
Continuous
 62
     0
100
AcDbLine
 10
177.5029903507
 20
170.3177912743
 30
0.0
 11
177.5102109252
 21
170.3219594183
 31
0.0
  0
LINE
  5
367
330
24F
100
AcDbEntity
  8
ALL_ASSEM_MEMBER
  6
Continuous
 62
     0
100
AcDbLine
 10
47.0987008246
 20
271.3809133764
 30
0.0
 11
83.9267097087
 21
271.3809133764
 31
0.0
  0
LINE
  5
368
330
24F
100
AcDbEntity
  8
ALL_ASSEM_MEMBER
  6
Continuous
 62
     0
100
AcDbLine
 10
84.0190976619
 20
271.3809133764
 30
0.0
 11
110.0604324814
 21
271.3809133764
 31
0.0
  0
LINE
  5
369
330
24F
100
AcDbEntity
  8
ALL_ASSEM_MEMBER
  6
Continuous
 62
     0
100
AcDbLine
 10
110.0604324814
 20
271.3809133764
 30
0.0
 11
136.1017673009
 21
271.3809133764
 31
0.0
  0
LINE
  5
36A
330
24F
100
AcDbEntity
  8
ALL_ASSEM_MEMBER
  6
Continuous
 62
     0
100
AcDbLine
 10
136.1941552541
 20
271.3809133764
 30
0.0
 11
173.0221641382
 21
271.3809133764
 31
0.0
  0
LINE
  5
36B
330
24F
100
AcDbEntity
  8
ALL_ASSEM_MEMBER
  6
Continuous
 62
     0
100
AcDbLine
 10
132.1104094971
 20
271.5809133764
 30
0.0
 11
131.2604324814
 21
271.5809133764
 31
0.0
  0
LINE
  5
36C
330
24F
100
AcDbEntity
  8
ALL_ASSEM_MEMBER
  6
Continuous
 62
     0
100
AcDbLine
 10
88.8604324814
 20
271.5809133764
 30
0.0
 11
88.0104554657
 21
271.5809133764
 31
0.0
  0
LINE
  5
36D
330
24F
100
AcDbEntity
  8
ALL_ASSEM_MEMBER
  6
Continuous
 62
     0
100
AcDbLine
 10
90.2604324814
 20
271.5809133764
 30
0.0
 11
91.1104094971
 21
271.5809133764
 31
0.0
  0
LINE
  5
36E
330
24F
100
AcDbEntity
  8
ALL_ASSEM_MEMBER
  6
Continuous
 62
     0
100
AcDbLine
 10
129.0104554657
 20
271.5809133764
 30
0.0
 11
129.8604324814
 21
271.5809133764
 31
0.0
  0
LWPOLYLINE
  5
378
330
24F
100
AcDbEntity
  8
ALL_ASSEM_MEMBER
  6
Continuous
 62
     0
100
AcDbPolyline
 90
        3
 70
     0
 43
0.0
 10
197.603157275
 20
210.9624793465
 10
197.6063478019
 20
210.9325474059
 10
197.6066769262
 20
210.9281987297
  0
LWPOLYLINE
  5
379
330
24F
100
AcDbEntity
  8
ALL_ASSEM_MEMBER
  6
Continuous
 62
     0
100
AcDbPolyline
 90
        3
 70
     0
 43
0.0
 10
199.1551549512
 20
210.2338101641
 10
199.1574643907
 20
210.2111021923
 10
199.1591143329
 20
210.1882528929
  0
LWPOLYLINE
  5
37A
330
24F
100
AcDbEntity
  8
ALL_ASSEM_MEMBER
  6
Continuous
 62
     0
100
AcDbPolyline
 90
        3
 70
     0
 43
0.0
 10
199.1591143329
 20
210.1882528929
 10
199.1601035212
 20
210.165321788
 10
199.1604324814
 20
210.1423870879
  0
LWPOLYLINE
  5
37B
330
24F
100
AcDbEntity
  8
ALL_ASSEM_MEMBER
  6
Continuous
 62
     0
100
AcDbPolyline
 90
       25
 70
     0
 43
0.0
 10
195.9604237204
 20
214.2009133764
 10
195.9512812137
 20
214.5934193236
 10
195.9224235793
 20
215.0038335966
 10
195.8728254253
 20
215.4238400398
 10
195.8012401508
 20
215.8542930869
 10
195.7061799144
 20
216.2960300203
 10
195.5859108323
 20
216.7498589357
 10
195.438532317
 20
217.2162904208
 10
195.2621151724
 20
217.6952864402
 10
195.0548410286
 20
218.18610951
 10
194.8149661156
 20
218.6877126883
 10
194.5411970505
 20
219.19819938
 10
194.232697673
 20
219.7150691206
 10
193.8888577441
 20
220.2357668856
 10
193.5097426991
 20
220.757102015
 10
193.0990693604
 20
221.2718228362
 10
192.6630732928
 20
221.7715773747
 10
192.2091132801
 20
222.2489406871
 10
191.7434828369
 20
222.699312997
 10
191.2704282632
 20
223.1209918401
 10
190.794209187
 20
223.5126174096
 10
190.319236982
 20
223.8730775
 10
189.850204194
 20
224.201471156
 10
189.3919980218
 20
224.4972019669
 10
188.9582376797
 20
224.7551858527
  0
LINE
  5
37D
330
24F
100
AcDbEntity
  8
ALL_ASSEM_MEMBER
  6
Continuous
 62
     0
100
AcDbLine
 10
192.8104324814
 20
210.8923870474
 30
0.0
 11
192.8104324814
 21
193.8923870474
 31
0.0
  0
LINE
  5
37E
330
24F
100
AcDbEntity
  8
ALL_ASSEM_MEMBER
  6
Continuous
 62
     0
100
AcDbLine
 10
193.4104324814
 20
195.1423870474
 30
0.0
 11
193.4104324814
 21
193.9423870348
 31
0.0
  0
LINE
  5
37F
330
24F
100
AcDbEntity
  8
ALL_ASSEM_MEMBER
  6
Continuous
 62
     0
100
AcDbLine
 10
193.4104324814
 20
209.6423870474
 30
0.0
 11
193.4104324814
 21
210.84238706
 31
0.0
  0
LINE
  5
380
330
24F
100
AcDbEntity
  8
ALL_ASSEM_MEMBER
  6
Continuous
 62
     0
100
AcDbLine
 10
194.4604324814
 20
195.1423870474
 30
0.0
 11
194.4604324814
 21
193.9423870443
 31
0.0
  0
LINE
  5
381
330
24F
100
AcDbEntity
  8
ALL_ASSEM_MEMBER
  6
Continuous
 62
     0
100
AcDbLine
 10
194.4604324814
 20
209.6423870474
 30
0.0
 11
194.4604324814
 21
210.8423870738
 31
0.0
  0
LINE
  5
382
330
24F
100
AcDbEntity
  8
ALL_ASSEM_MEMBER
  6
Continuous
 62
     0
100
AcDbLine
 10
194.9604412424
 20
214.2009133764
 30
0.0
 11
194.9604412424
 21
211.8423870474
 31
0.0
  0
LINE
  5
383
330
24F
100
AcDbEntity
  8
ALL_ASSEM_MEMBER
  6
Continuous
 62
     0
100
AcDbLine
 10
195.8104324814
 20
209.6423870474
 30
0.0
 11
195.8104324814
 21
207.1423870474
 31
0.0
  0
LINE
  5
384
330
24F
100
AcDbEntity
  8
ALL_ASSEM_MEMBER
  6
Continuous
 62
     0
100
AcDbLine
 10
195.8104324814
 20
197.6423870474
 30
0.0
 11
195.8104324814
 21
195.1423870474
 31
0.0
  0
LINE
  5
385
330
24F
100
AcDbEntity
  8
ALL_ASSEM_MEMBER
  6
Continuous
 62
     0
100
AcDbLine
 10
195.9604237204
 20
211.8423870474
 30
0.0
 11
195.9604237204
 21
214.2009133764
 31
0.0
  0
LINE
  5
386
330
24F
100
AcDbEntity
  8
ALL_ASSEM_MEMBER
  6
Continuous
 62
     0
100
AcDbLine
 10
196.5604324814
 20
195.1423870474
 30
0.0
 11
196.5604324814
 21
193.9423870188
 31
0.0
  0
LINE
  5
387
330
24F
100
AcDbEntity
  8
ALL_ASSEM_MEMBER
  6
Continuous
 62
     0
100
AcDbLine
 10
196.5604324814
 20
209.6423870474
 30
0.0
 11
196.5604324814
 21
210.8423870818
 31
0.0
  0
LINE
  5
388
330
24F
100
AcDbEntity
  8
ALL_ASSEM_MEMBER
  6
Continuous
 62
     0
100
AcDbLine
 10
196.8604324814
 20
209.6423870474
 30
0.0
 11
196.8604324814
 21
210.1423870585
 31
0.0
  0
LINE
  5
389
330
24F
100
AcDbEntity
  8
ALL_ASSEM_MEMBER
  6
Continuous
 62
     0
100
AcDbLine
 10
197.4354324814
 20
209.6423870474
 30
0.0
 11
197.4354324814
 21
210.1423870474
 31
0.0
  0
LINE
  5
38A
330
24F
100
AcDbEntity
  8
ALL_ASSEM_MEMBER
  6
Continuous
 62
     0
100
AcDbLine
 10
197.6104324814
 20
195.1423870474
 30
0.0
 11
197.6104324814
 21
193.9423870238
 31
0.0
  0
LINE
  5
38B
330
24F
100
AcDbEntity
  8
ALL_ASSEM_MEMBER
  6
Continuous
 62
     0
100
AcDbLine
 10
198.5854324814
 20
209.6423870474
 30
0.0
 11
198.5854324814
 21
210.1423870474
 31
0.0
  0
LINE
  5
38C
330
24F
100
AcDbEntity
  8
ALL_ASSEM_MEMBER
  6
Continuous
 62
     0
100
AcDbLine
 10
199.1604324814
 20
209.6423870474
 30
0.0
 11
199.1604324814
 21
210.1423870484
 31
0.0
  0
LINE
  5
38D
330
24F
100
AcDbEntity
  8
ALL_ASSEM_MEMBER
  6
Continuous
 62
     0
100
AcDbLine
 10
196.8604324814
 20
210.1423870585
 30
0.0
 11
196.860760484
 21
210.1652884015
 31
0.0
  0
LWPOLYLINE
  5
38E
330
24F
100
AcDbEntity
  8
ALL_ASSEM_MEMBER
  6
Continuous
 62
     0
100
AcDbPolyline
 90
       57
 70
     0
 43
0.0
 10
198.5854324814
 20
210.1423870474
 10
198.5857615539
 20
210.1653257008
 10
198.5867508471
 20
210.1882566622
 10
198.588400682
 20
210.2111034576
 10
198.5907097916
 20
210.2338082778
 10
198.5936866258
 20
210.2563903856
 10
198.597332929
 20
210.278786757
 10
198.6016452885
 20
210.3009192636
 10
198.6066304175
 20
210.3227676461
 10
198.6122924023
 20
210.3442885987
 10
198.6186350099
 20
210.3654345735
 10
198.6256782106
 20
210.3862010928
 10
198.6334392949
 20
210.4065557179
 10
198.6419119663
 20
210.4264016963
 10
198.6510441897
 20
210.4455638016
 10
198.6607873183
 20
210.4639179965
 10
198.6711120566
 20
210.4814013784
 10
198.6819592633
 20
210.4979178101
 10
198.693262104
 20
210.513386362
 10
198.7049847233
 20
210.5277861078
 10
198.7171266662
 20
210.5411370354
 10
198.7296696327
 20
210.5534300607
 10
198.7425970442
 20
210.5646548238
 10
198.7559164962
 20
210.5748151367
 10
198.7696066298
 20
210.5838847129
 10
198.7836370727
 20
210.5918320937
 10
198.7979888107
 20
210.59863297
 10
198.8126184967
 20
210.6042522103
 10
198.8274904762
 20
210.6086619784
 10
198.8425393483
 20
210.6118311851
 10
198.8577143159
 20
210.6137410107
 10
198.8729534847
 20
210.614377989
 10
198.8881812818
 20
210.6137384415
 10
198.9033415207
 20
210.61182851
 10
198.9183889243
 20
210.6086583193
 10
198.9332549129
 20
210.6042493372
 10
198.9478804768
 20
210.5986311159
 10
198.9622332299
 20
210.5918293179
 10
198.9762638678
 20
210.5838813144
 10
198.9899524087
 20
210.5748123295
 10
199.0032735763
 20
210.5646502134
 10
199.0162053192
 20
210.5534208374
 10
199.0287438915
 20
210.5411312236
 10
199.0408611939
 20
210.5278082491
 10
199.0525453565
 20
210.5134609099
 10
199.0638012281
 20
210.4980685474
 10
199.0746182292
 20
210.4816174819
 10
199.0849570421
 20
210.464133243
 10
199.0947223977
 20
210.4457592391
 10
199.1038610053
 20
210.4266054686
 10
199.1123382391
 20
210.4067722239
 10
199.1201178269
 20
210.3863925746
 10
199.1271831952
 20
210.365581007
 10
199.1335539144
 20
210.3443548895
 10
199.1392318589
 20
210.3227785935
 10
199.1442197384
 20
210.3009189606
 10
199.1482709296
 20
210.280127119
  0
LINE
  5
38F
330
24F
100
AcDbEntity
  8
ALL_ASSEM_MEMBER
  6
Continuous
 62
     0
100
AcDbLine
 10
193.4104324814
 20
210.84238706
 30
0.0
 11
193.4108809465
 21
210.8723276863
 31
0.0
  0
LWPOLYLINE
  5
390
330
24F
100
AcDbEntity
  8
ALL_ASSEM_MEMBER
  6
Continuous
 62
     0
100
AcDbPolyline
 90
       65
 70
     0
 43
0.0
 10
194.4604324814
 20
193.9423870443
 10
194.4599807178
 20
193.9123365646
 10
194.4586209387
 20
193.8822611797
 10
194.4563477652
 20
193.852226286
 10
194.4531573003
 20
193.8222949555
 10
194.4490282843
 20
193.7924081955
 10
194.4439372273
 20
193.7625730467
 10
194.4378696655
 20
193.7328687665
 10
194.4308093149
 20
193.7033583887
 10
194.4227095189
 20
193.674002347
 10
194.4135421461
 20
193.6448664757
 10
194.4032695836
 20
193.6159965
 10
194.3918254928
 20
193.5873854053
 10
194.3791623514
 20
193.5591055633
 10
194.3652262066
 20
193.5312293105
 10
194.3500251115
 20
193.5039495164
 10
194.3335650507
 20
193.4774252531
 10
194.3158859051
 20
193.4518414766
 10
194.2970676568
 20
193.4273983626
 10
194.2771523787
 20
193.4042077824
 10
194.2561663715
 20
193.3823476087
 10
194.2341635147
 20
193.3619121917
 10
194.2111464211
 20
193.3429392108
 10
194.1871185721
 20
193.3254727718
 10
194.162109735
 20
193.3095780784
 10
194.1361880736
 20
193.2953371357
 10
194.1094154629
 20
193.282816426
 10
194.0818561457
 20
193.2720759714
 10
194.0535586809
 20
193.2631666329
 10
194.0246434426
 20
193.2561569977
 10
193.9952623839
 20
193.2511056492
 10
193.9655480052
 20
193.2480505135
 10
193.9356566339
 20
193.2470185939
 10
193.9057798748
 20
193.248018996
 10
193.8760772115
 20
193.2510407671
 10
193.8466825722
 20
193.2560618228
 10
193.8177499943
 20
193.2630433524
 10
193.7894081199
 20
193.2719356321
 10
193.761767139
 20
193.2826805222
 10
193.7349416512
 20
193.295202729
 10
193.7089956408
 20
193.3094358692
 10
193.6839975659
 20
193.3253019334
 10
193.6599654459
 20
193.3427480161
 10
193.6369300408
 20
193.3617121483
 10
193.6149156041
 20
193.3821341653
 10
193.5939209416
 20
193.4039783412
 10
193.5739916802
 20
193.4271593726
 10
193.5551546561
 20
193.4516008053
 10
193.5374557098
 20
193.4771874096
 10
193.5209876072
 20
193.5036983371
 10
193.5057921905
 20
193.530938748
 10
193.4918472915
 20
193.5587999468
 10
193.4791501938
 20
193.5871239496
 10
193.4676795477
 20
193.6157735712
 10
193.4573639584
 20
193.6447436295
 10
193.4481664031
 20
193.6739651913
 10
193.4400565484
 20
193.7033548884
 10
193.4329954091
 20
193.7328682619
 10
193.4269279017
 20
193.762572159
 10
193.4218367903
 20
193.7924074706
 10
193.4177076878
 20
193.8222947489
 10
193.4145171608
 20
193.8522266898
 10
193.412243974
 20
193.8822620093
 10
193.4108842214
 20
193.9123373462
 10
193.4104324814
 20
193.9423869915
  0
LWPOLYLINE
  5
391
330
24F
100
AcDbEntity
  8
ALL_ASSEM_MEMBER
  6
Continuous
 62
     0
100
AcDbPolyline
 90
       58
 70
     0
 43
0.0
 10
196.5604324814
 20
210.8423870818
 10
196.5608842454
 20
210.8724375456
 10
196.562244025
 20
210.9025129302
 10
196.5645171989
 20
210.9325478236
 10
196.5677076643
 20
210.9624791538
 10
196.5718366807
 20
210.9923659135
 10
196.5769277381
 20
211.022201062
 10
196.5829953003
 20
211.0519053418
 10
196.5900556512
 20
211.0814157193
 10
196.5981554476
 20
211.1107717606
 10
196.6073228208
 20
211.1399076315
 10
196.6175953838
 20
211.1687776069
 10
196.6290394749
 20
211.1973887013
 10
196.6417026168
 20
211.2256685428
 10
196.6556387619
 20
211.2535447952
 10
196.6708398574
 20
211.2808245887
 10
196.6872999185
 20
211.3073488515
 10
196.7049790644
 20
211.3329326274
 10
196.723797313
 20
211.3573757407
 10
196.7437125912
 20
211.3805663202
 10
196.7646985986
 20
211.4024264933
 10
196.7867014556
 20
211.4228619096
 10
196.8097185493
 20
211.4418348898
 10
196.8337463984
 20
211.4593013283
 10
196.8587552355
 20
211.475196021
 10
196.8846768969
 20
211.4894369631
 10
196.9114495077
 20
211.5019576721
 10
196.9390088248
 20
211.5126981261
 10
196.9673062896
 20
211.5216074641
 10
196.9962215277
 20
211.5286170986
 10
197.0256025863
 20
211.5336684466
 10
197.0553169648
 20
211.5367235818
 10
197.0852083359
 20
211.5377555009
 10
197.1150850946
 20
211.5367550983
 10
197.1447877576
 20
211.5337333268
 10
197.1741823965
 20
211.5287122708
 10
197.2031149741
 20
211.5217307409
 10
197.2314568481
 20
211.5128384609
 10
197.2590978287
 20
211.5020935706
 10
197.285923316
 20
211.4895713635
 10
197.311869326
 20
211.4753382232
 10
197.3368674006
 20
211.4594721589
 10
197.3608995203
 20
211.4420260761
 10
197.383934925
 20
211.4230619438
 10
197.4059493614
 20
211.4026399269
 10
197.4269440236
 20
211.380795751
 10
197.4468732846
 20
211.3576147197
 10
197.4657103084
 20
211.3331732871
 10
197.4834092544
 20
211.307586683
 10
197.4998773569
 20
211.2810757556
 10
197.5150727733
 20
211.2538353448
 10
197.5290176721
 20
211.2259741463
 10
197.5417147696
 20
211.1976501438
 10
197.5531854156
 20
211.1690005224
 10
197.5635010048
 20
211.1400304644
 10
197.5726985599
 20
211.1108089028
 10
197.5808084145
 20
211.081419206
 10
197.5878695538
 20
211.0519058327
  0
LWPOLYLINE
  5
392
330
24F
100
AcDbEntity
  8
ALL_ASSEM_MEMBER
  6
Continuous
 62
     0
100
AcDbPolyline
 90
       65
 70
     0
 43
0.0
 10
197.6104324814
 20
193.9423870238
 10
197.6099840161
 20
193.9124464031
 10
197.6086292117
 20
193.8823983268
 10
197.6063580337
 20
193.8523391208
 10
197.6031666421
 20
193.8223713994
 10
197.5990403221
 20
193.7924862692
 10
197.5939544808
 20
193.76266521
 10
197.5878934884
 20
193.7329763351
 10
197.580837977
 20
193.7034698212
 10
197.5727322937
 20
193.6740795811
 10
197.5635377016
 20
193.6448532017
 10
197.5532244567
 20
193.6158769517
 10
197.541756525
 20
193.5872225175
 10
197.5290627475
 20
193.5588951249
 10
197.515121423
 20
193.5310308432
 10
197.4999295051
 20
193.5037869603
 10
197.4834646012
 20
193.4772718784
 10
197.4657682677
 20
193.4516802178
 10
197.4469333608
 20
193.4272332129
 10
197.4270061388
 20
193.4040467172
 10
197.4060132165
 20
193.3821969471
 10
197.3840002663
 20
193.361769307
 10
197.3609662155
 20
193.3427996405
 10
197.3369351825
 20
193.3253480151
 10
197.3119380354
 20
193.3094764946
 10
197.2859927273
 20
193.295237947
 10
197.2591676595
 20
193.282710377
 10
197.2315267596
 20
193.2719601742
 10
197.203184505
 20
193.2630626394
 10
197.1742512476
 20
193.2560760043
 10
197.1448554727
 20
193.2510499924
 10
197.1151512769
 20
193.2480234724
 10
197.085272771
 20
193.2470185658
 10
197.0553791995
 20
193.2480462472
 10
197.0256621908
 20
193.2510974714
 10
196.9962783538
 20
193.2561452378
 10
196.9673600752
 20
193.2631516605
 10
196.9390593375
 20
193.2720581919
 10
196.9114967414
 20
193.2827961951
 10
196.8847208926
 20
193.2953147822
 10
196.8587960285
 20
193.3095539302
 10
196.8337840148
 20
193.3254471665
 10
196.8097530225
 20
193.3429124948
 10
196.7867328961
 20
193.3618846569
 10
196.7647272221
 20
193.3823194348
 10
196.7437384613
 20
193.4041792725
 10
196.7238204657
 20
193.4273698731
 10
196.7049996412
 20
193.4518132524
 10
196.6873179731
 20
193.4773976688
 10
196.6708555289
 20
193.5039228533
 10
196.6556522793
 20
193.5312036879
 10
196.6417140658
 20
193.5590813543
 10
196.6290490206
 20
193.5873628424
 10
196.6176032469
 20
193.6159756529
 10
196.6073291966
 20
193.6448474214
 10
196.5981605896
 20
193.6739849004
 10
196.5900596876
 20
193.7033426879
 10
196.5829983694
 20
193.7328548992
 10
196.5769299784
 20
193.7625610695
 10
196.5718382232
 20
193.7923981807
 10
196.5677086415
 20
193.8222869473
 10
196.5645177453
 20
193.8522202719
 10
196.5622442662
 20
193.8822571711
 10
196.5608843053
 20
193.9123345591
 10
196.5604324814
 20
193.942386988
  0
LWPOLYLINE
  5
393
330
24F
100
AcDbEntity
  8
ALL_ASSEM_MEMBER
  6
Continuous
 62
     0
100
AcDbPolyline
 90
       32
 70
     0
 43
0.0
 10
197.4354324814
 20
210.1423870474
 10
197.4360826321
 20
210.1651860477
 10
197.4380365324
 20
210.1879722346
 10
197.4412943048
 20
210.2106729243
 10
197.4458532138
 20
210.2332324872
 10
197.4517302544
 20
210.2556727986
 10
197.4589302839
 20
210.2779356347
 10
197.467448218
 20
210.2999459835
 10
197.4773048208
 20
210.321697122
 10
197.4885230132
 20
210.3431658419
 10
197.5010982145
 20
210.3642724402
 10
197.5150196532
 20
210.3849397923
 10
197.5303160061
 20
210.4051500561
 10
197.5469591033
 20
210.4248072274
 10
197.5648816778
 20
210.4437914516
 10
197.5840128065
 20
210.462005781
 10
197.6042494321
 20
210.4793472952
 10
197.6254899036
 20
210.4957395299
 10
197.6476997296
 20
210.5111694183
 10
197.6708421719
 20
210.5256197236
 10
197.6949319824
 20
210.5390988945
 10
197.7199423766
 20
210.5515825894
 10
197.7458253841
 20
210.5630354328
 10
197.7725846312
 20
210.5734429257
 10
197.8001817586
 20
210.5827685464
 10
197.8285635595
 20
210.5909713165
 10
197.8576761252
 20
210.5980116005
 10
197.8874048834
 20
210.6038398628
 10
197.9176259852
 20
210.6084157476
 10
197.9482751164
 20
210.6117146067
 10
197.9792540144
 20
210.6137095422
 10
198.0104324814
 20
210.6143779902
  0
LWPOLYLINE
  5
394
330
24F
100
AcDbEntity
  8
ALL_ASSEM_MEMBER
  6
Continuous
 62
     0
100
AcDbPolyline
 90
       33
 70
     0
 43
0.0
 10
194.4604324814
 20
210.8423870738
 10
194.4613160893
 20
210.8721046176
 10
194.4639755853
 20
210.9018470023
 10
194.4684214118
 20
210.931551101
 10
194.4746608489
 20
210.9611545652
 10
194.4827333626
 20
210.990710916
 10
194.4926857816
 20
211.0202208142
 10
194.5045466296
 20
211.0496083372
 10
194.518346082
 20
211.0788092959
 10
194.534188022
 20
211.1078873967
 10
194.552150486
 20
211.1368070196
 10
194.572292286
 20
211.1654884702
 10
194.5946759819
 20
211.1938550798
 10
194.619444394
 20
211.2219122055
 10
194.6466540213
 20
211.249542911
 10
194.6763187042
 20
211.2765978614
 10
194.7084748108
 20
211.3029621953
 10
194.7430607123
 20
211.3284571645
 10
194.7799142896
 20
211.3528715678
 10
194.8190251548
 20
211.3761288862
 10
194.8603810058
 20
211.3981540271
 10
194.9039509633
 20
211.4188654754
 10
194.9497858693
 20
211.4382189149
 10
194.9978548839
 20
211.4561289125
 10
195.0480892747
 20
211.4725013462
 10
195.1004529581
 20
211.4872578359
 10
195.1547921095
 20
211.5002929688
 10
195.2109610279
 20
211.5115175622
 10
195.2687312213
 20
211.5208395777
 10
195.3278082461
 20
211.528176847
 10
195.3879493391
 20
211.5334723596
 10
195.4489233028
 20
211.5366792649
 10
195.5104324814
 20
211.537755558
  0
LWPOLYLINE
  5
395
330
24F
100
AcDbEntity
  8
ALL_ASSEM_MEMBER
  6
Continuous
 62
     0
100
AcDbPolyline
 90
       33
 70
     0
 43
0.0
 10
196.5604324814
 20
193.9423870188
 10
196.5595488734
 20
193.9126694761
 10
196.5568893774
 20
193.8829270915
 10
196.5524435508
 20
193.8532229928
 10
196.5462041136
 20
193.8236195286
 10
196.5381315999
 20
193.7940631779
 10
196.5281791809
 20
193.7645532797
 10
196.5163183328
 20
193.7351657567
 10
196.5025188803
 20
193.7059647981
 10
196.4866769403
 20
193.6768866973
 10
196.4687144763
 20
193.6479670745
 10
196.4485726763
 20
193.6192856239
 10
196.4261889803
 20
193.5909190144
 10
196.4014205682
 20
193.5628618887
 10
196.3742109409
 20
193.5352311832
 10
196.344546258
 20
193.5081762329
 10
196.3123901513
 20
193.481811899
 10
196.2778042499
 20
193.4563169299
 10
196.2409506726
 20
193.4319025266
 10
196.2018398074
 20
193.4086452082
 10
196.1604839564
 20
193.3866200674
 10
196.1169139989
 20
193.3659086191
 10
196.0710790929
 20
193.3465551797
 10
196.0230100784
 20
193.3286451821
 10
195.9727756876
 20
193.3122727484
 10
195.9204120043
 20
193.2975162588
 10
195.8660728529
 20
193.284481126
 10
195.8099039346
 20
193.2732565325
 10
195.7521337412
 20
193.263934517
 10
195.6930567165
 20
193.2565972478
 10
195.6329156236
 20
193.2513017352
 10
195.5719416599
 20
193.2480948299
 10
195.5104324814
 20
193.2470185368
  0
LWPOLYLINE
  5
396
330
24F
100
AcDbEntity
  8
ALL_ASSEM_MEMBER
  6
Continuous
 62
     0
100
AcDbPolyline
 90
        3
 70
     0
 43
0.0
 10
196.860760484
 20
210.1652884015
 10
196.8617480974
 20
210.188208924
 10
196.8633972432
 20
210.2110638692
  0
LWPOLYLINE
  5
397
330
24F
100
AcDbEntity
  8
ALL_ASSEM_MEMBER
  6
Continuous
 62
     0
100
AcDbPolyline
 90
        3
 70
     0
 43
0.0
 10
193.4108809465
 20
210.8723276863
 10
193.4122357508
 20
210.9023757627
 10
193.4145069286
 20
210.9324349688
  0
LINE
  5
398
330
24F
100
AcDbEntity
  8
ALL_ASSEM_MEMBER
  6
Continuous
 62
     0
100
AcDbLine
 10
196.8633972432
 20
210.2110638692
 30
0.0
 11
196.8657060555
 21
210.2337762429
 31
0.0
  0
LINE
  5
399
330
24F
100
AcDbEntity
  8
ALL_ASSEM_MEMBER
  6
Continuous
 62
     0
100
AcDbLine
 10
193.4145069286
 20
210.9324349688
 30
0.0
 11
193.4176983201
 21
210.9624026903
 31
0.0
  0
LWPOLYLINE
  5
39A
330
24F
100
AcDbEntity
  8
ALL_ASSEM_MEMBER
  6
Continuous
 62
     0
100
AcDbPolyline
 90
        3
 70
     0
 43
0.0
 10
196.8657060555
 20
210.2337762429
 10
196.8686813074
 20
210.2563542437
 10
196.8712884839
 20
210.2723735103
  0
LINE
  5
39B
330
24F
100
AcDbEntity
  8
ALL_ASSEM_MEMBER
  6
Continuous
 62
     0
100
AcDbLine
 10
193.4176983201
 20
210.9624026903
 30
0.0
 11
193.4218246399
 21
210.9922878207
 31
0.0
  0
LINE
  5
39C
330
24F
100
AcDbEntity
  8
ALL_ASSEM_MEMBER
  6
Continuous
 62
     0
100
AcDbLine
 10
196.8712884839
 20
210.2723735103
 30
0.0
 11
196.8725898922
 21
210.2801025263
 31
0.0
  0
LINE
  5
39D
330
24F
100
AcDbEntity
  8
ALL_ASSEM_MEMBER
  6
Continuous
 62
     0
100
AcDbLine
 10
193.4218246399
 20
210.9922878207
 30
0.0
 11
193.4269104811
 21
211.02210888
 31
0.0
  0
LWPOLYLINE
  5
39E
330
24F
100
AcDbEntity
  8
ALL_ASSEM_MEMBER
  6
Continuous
 62
     0
100
AcDbPolyline
 90
       57
 70
     0
 43
0.0
 10
196.8725898922
 20
210.2801025263
 10
196.8766349212
 20
210.3008701913
 10
196.8816211865
 20
210.3227300224
 10
196.8872978905
 20
210.3443081133
 10
196.8936676315
 20
210.3655367494
 10
196.9007320542
 20
210.3863506939
 10
196.9085105918
 20
210.4067322951
 10
196.9169867774
 20
210.4265674301
 10
196.9261244215
 20
210.4457232106
 10
196.935888944
 20
210.4640993923
 10
196.946227207
 20
210.4815861676
 10
196.9570439063
 20
210.4980399496
 10
196.9682995034
 20
210.5134348523
 10
196.9799834183
 20
210.5277845905
 10
196.9921004097
 20
210.5411097584
 10
197.0046387902
 20
210.5534015799
 10
197.0175704232
 20
210.5646331281
 10
197.0308915038
 20
210.5747973372
 10
197.044580043
 20
210.5838683859
 10
197.0586107299
 20
210.5918183981
 10
197.0729636222
 20
210.5986221695
 10
197.0875893975
 20
210.6042423108
 10
197.1024556626
 20
210.6086531532
 10
197.1175034844
 20
210.6118251517
 10
197.1326642486
 20
210.6137368091
 10
197.1478925493
 20
210.6143779858
 10
197.163132338
 20
210.6137425437
 10
197.1783080399
 20
210.611834139
 10
197.1933576577
 20
210.608666242
 10
197.2082304642
 20
210.604257652
 10
197.2228610179
 20
210.5986394575
 10
197.2372136312
 20
210.591839505
 10
197.2512449609
 20
210.583892923
 10
197.2649359857
 20
210.5748240238
 10
197.2782563569
 20
210.5646642447
 10
197.2911845902
 20
210.5534399763
 10
197.3037283325
 20
210.5411473849
 10
197.3158710486
 20
210.5277967931
 10
197.3275944452
 20
210.513397272
 10
197.3388980035
 20
210.4979289195
 10
197.3497459792
 20
210.4814125005
 10
197.3600714866
 20
210.4639289935
 10
197.3698153342
 20
210.4455746124
 10
197.3789482304
 20
210.4264122596
 10
197.3874216207
 20
210.4065657462
 10
197.3951834772
 20
210.3862101959
 10
197.402227291
 20
210.3654429135
 10
197.4085704222
 20
210.344296202
 10
197.4142328323
 20
210.3227746266
 10
197.4192183551
 20
210.300925507
 10
197.4235310615
 20
210.2787921985
 10
197.4271776619
 20
210.2563949729
 10
197.4301547405
 20
210.2338119705
 10
197.4324640391
 20
210.2111062383
 10
197.4341140085
 20
210.188258522
 10
197.435103382
 20
210.1653266353
 10
197.4354324814
 20
210.142387088
  0
LWPOLYLINE
  5
39F
330
24F
100
AcDbEntity
  8
ALL_ASSEM_MEMBER
  6
Continuous
 62
     0
100
AcDbPolyline
 90
        3
 70
     0
 43
0.0
 10
42.6262036073
 20
264.4515658691
 10
42.6210802663
 20
264.4505568666
 10
42.617478678
 20
264.4514096859
  0
LWPOLYLINE
  5
3A0
330
24F
100
AcDbEntity
  8
ALL_ASSEM_MEMBER
  6
Continuous
 62
     0
100
AcDbPolyline
 90
        6
 70
     0
 43
0.0
 10
177.4953045374
 20
264.4513646021
 10
177.4886973276
 20
264.4540918305
 10
177.480964848
 20
264.4586846815
 10
177.4728255273
 20
264.4648331365
 10
177.4648301258
 20
264.4722430535
 10
177.4574420593
 20
264.4806471896
  0
LINE
  5
3A1
330
24F
100
AcDbEntity
  8
ALL_ASSEM_MEMBER
  6
Continuous
 62
     0
100
AcDbLine
 10
177.4574420593
 20
264.4806471896
 30
0.0
 11
177.4513036721
 21
264.4893951958
 31
0.0
  0
LINE
  5
3A2
330
24F
100
AcDbEntity
  8
ALL_ASSEM_MEMBER
  6
Continuous
 62
     0
100
AcDbLine
 10
173.0221641382
 20
271.3809133764
 30
0.0
 11
177.4028204346
 21
264.5665591374
 31
0.0
  0
LINE
  5
3A3
330
24F
100
AcDbEntity
  8
ALL_ASSEM_MEMBER
  6
Continuous
 62
     0
100
AcDbLine
 10
173.0604324814
 20
271.3809133764
 30
0.0
 11
177.4410887779
 21
264.5665591374
 31
0.0
  0
LINE
  5
3A4
330
24F
100
AcDbEntity
  8
ALL_ASSEM_MEMBER
  6
Continuous
 62
     0
100
AcDbLine
 10
177.5207271002
 20
264.4426773027
 30
0.0
 11
177.4903660302
 21
264.4899056339
 31
0.0
  0
LWPOLYLINE
  5
3A5
330
24F
100
AcDbEntity
  8
ALL_ASSEM_MEMBER
  6
Continuous
 62
     0
100
AcDbPolyline
 90
        3
 70
     0
 43
0.0
 10
177.4028204346
 20
264.5665591374
 10
177.4261340161
 20
264.5298229576
 10
177.4513036721
 20
264.4893951958
  0
LWPOLYLINE
  5
3A6
330
24F
100
AcDbEntity
  8
ALL_ASSEM_MEMBER
  6
Continuous
 62
     0
100
AcDbPolyline
 90
        3
 70
     0
 43
0.0
 10
177.4895720154
 20
264.4893951958
 10
177.4645047871
 20
264.5296598003
 10
177.4410887779
 20
264.5665591374
  0
LINE
  5
3A7
330
24F
100
AcDbEntity
  8
ALL_ASSEM_MEMBER
  6
Continuous
 62
     0
100
AcDbLine
 10
177.4895720154
 20
264.4893951958
 30
0.0
 11
177.4947752996
 21
264.4807330878
 31
0.0
  0
LWPOLYLINE
  5
3A8
330
24F
100
AcDbEntity
  8
ALL_ASSEM_MEMBER
  6
Continuous
 62
     0
100
AcDbPolyline
 90
        5
 70
     0
 43
0.0
 10
177.4947752996
 20
264.4807330878
 10
177.4993314352
 20
264.4724904317
 10
177.5028255641
 20
264.4650878084
 10
177.5048544044
 20
264.4589449614
 10
177.505145375
 20
264.4543864814
  0
LINE
  5
3A9
330
24F
100
AcDbEntity
  8
ALL_ASSEM_MEMBER
  6
Continuous
 62
     0
100
AcDbLine
 10
177.4591332324
 20
264.4426773027
 30
0.0
 11
177.4028204346
 21
264.5665591374
 31
0.0
  0
LINE
  5
3AA
330
24F
100
AcDbEntity
  8
ALL_ASSEM_MEMBER
  6
Continuous
 62
     0
100
AcDbLine
 10
197.5878695538
 20
211.0519058327
 30
0.0
 11
197.593937061
 21
211.0222019358
 31
0.0
  0
LINE
  5
3AB
330
24F
100
AcDbEntity
  8
ALL_ASSEM_MEMBER
  6
Continuous
 62
     0
100
AcDbLine
 10
197.593937061
 20
211.0222019358
 30
0.0
 11
197.5990281724
 21
210.9923666245
 31
0.0
  0
LINE
  5
3AC
330
24F
100
AcDbEntity
  8
ALL_ASSEM_MEMBER
  6
Continuous
 62
     0
100
AcDbLine
 10
199.1482709296
 20
210.280127119
 30
0.0
 11
199.1495661345
 21
210.2724349456
 31
0.0
  0
LINE
  5
3AD
330
24F
100
AcDbEntity
  8
ALL_ASSEM_MEMBER
  6
Continuous
 62
     0
100
AcDbLine
 10
199.1495661345
 20
210.2724349456
 30
0.0
 11
199.1521777418
 21
210.2563944301
 31
0.0
  0
LINE
  5
3AE
330
24F
100
AcDbEntity
  8
ALL_ASSEM_MEMBER
  6
Continuous
 62
     0
100
AcDbLine
 10
197.5990281724
 20
210.9923666245
 30
0.0
 11
197.603157275
 21
210.9624793465
 31
0.0
  0
LINE
  5
3AF
330
24F
100
AcDbEntity
  8
ALL_ASSEM_MEMBER
  6
Continuous
 62
     0
100
AcDbLine
 10
199.1521777418
 20
210.2563944301
 30
0.0
 11
199.1551549512
 21
210.2338101641
 31
0.0
  0
LINE
  5
3B0
330
24F
100
AcDbEntity
  8
ALL_ASSEM_MEMBER
  6
Continuous
 62
     0
100
AcDbLine
 10
207.8104324814
 20
195.1423870474
 30
0.0
 11
207.8104324814
 21
209.6423870474
 31
0.0
  0
LINE
  5
3B1
330
24F
100
AcDbEntity
  8
ALL_ASSEM_MEMBER
  6
Continuous
 62
     0
100
AcDbLine
 10
208.3104324814
 20
206.6423870474
 30
0.0
 11
208.3104324814
 21
198.1423870474
 31
0.0
  0
LINE
  5
3B2
330
24F
100
AcDbEntity
  8
ALL_ASSEM_MEMBER
  6
Continuous
 62
     0
100
AcDbLine
 10
210.8104324814
 20
206.5923870474
 30
0.0
 11
210.8104324814
 21
198.2451401529
 31
0.0
  0
LINE
  5
3B3
330
24F
100
AcDbEntity
  8
ALL_ASSEM_MEMBER
  6
Continuous
 62
     0
100
AcDbLine
 10
211.3104324814
 20
205.9087237542
 30
0.0
 11
211.3104324814
 21
198.1923870474
 31
0.0
  0
LINE
  5
3B4
330
24F
100
AcDbEntity
  8
ALL_ASSEM_MEMBER
  6
Continuous
 62
     0
100
AcDbLine
 10
244.6884632237
 20
264.4426773027
 30
0.0
 11
244.7447760215
 21
264.5665591374
 31
0.0
  0
LINE
  5
3B5
330
24F
100
AcDbEntity
  8
ALL_ASSEM_MEMBER
  6
Continuous
 62
     0
100
AcDbLine
 10
244.6527713215
 20
264.4806471896
 30
0.0
 11
244.6580244408
 21
264.4893951958
 31
0.0
  0
LINE
  5
3B6
330
24F
100
AcDbEntity
  8
ALL_ASSEM_MEMBER
  6
Continuous
 62
     0
100
AcDbLine
 10
244.6831940968
 20
264.5298229576
 30
0.0
 11
244.6580244408
 21
264.4893951958
 31
0.0
  0
LWPOLYLINE
  5
3B7
330
24F
100
AcDbEntity
  8
ALL_ASSEM_MEMBER
  6
Continuous
 62
     0
100
AcDbPolyline
 90
        3
 70
     0
 43
0.0
 10
244.696292784
 20
264.4893951958
 10
244.7213600122
 20
264.5296598003
 10
244.7447760215
 20
264.5665591374
  0
LINE
  5
3B8
330
24F
100
AcDbEntity
  8
ALL_ASSEM_MEMBER
  6
Continuous
 62
     0
100
AcDbLine
 10
244.7065076782
 20
264.5665591374
 30
0.0
 11
244.6831940968
 21
264.5298229576
 31
0.0
  0
LINE
  5
3B9
330
24F
100
AcDbEntity
  8
ALL_ASSEM_MEMBER
  6
Continuous
 62
     0
100
AcDbLine
 10
249.0871639747
 20
271.3809133764
 30
0.0
 11
244.7065076782
 21
264.5665591374
 31
0.0
  0
LINE
  5
3BA
330
24F
100
AcDbEntity
  8
ALL_ASSEM_MEMBER
  6
Continuous
 62
     0
100
AcDbLine
 10
244.6268693559
 20
264.4426773027
 30
0.0
 11
244.6572304259
 21
264.4899056339
 31
0.0
  0
LINE
  5
3BB
330
24F
100
AcDbEntity
  8
ALL_ASSEM_MEMBER
  6
Continuous
 62
     0
100
AcDbLine
 10
249.125432318
 20
271.3809133764
 30
0.0
 11
244.7447760215
 21
264.5665591374
 31
0.0
  0
LINE
  5
3BC
330
24F
100
AcDbEntity
  8
ALL_ASSEM_MEMBER
  6
Continuous
 62
     0
100
AcDbLine
 10
244.696292784
 20
264.4893951958
 30
0.0
 11
244.6902220035
 21
264.4807330878
 31
0.0
  0
LWPOLYLINE
  5
3BD
330
24F
100
AcDbEntity
  8
ALL_ASSEM_MEMBER
  6
Continuous
 62
     0
100
AcDbPolyline
 90
        6
 70
     0
 43
0.0
 10
244.6902220035
 20
264.4807330878
 10
244.6830071325
 20
264.4724904317
 10
244.6750738972
 20
264.4650878084
 10
244.6670152314
 20
264.4589449614
 10
244.6594720256
 20
264.4543864814
 10
244.6529351006
 20
264.4515658691
  0
LWPOLYLINE
  5
3BE
330
24F
100
AcDbEntity
  8
ALL_ASSEM_MEMBER
  6
Continuous
 62
     0
100
AcDbPolyline
 90
        4
 70
     0
 43
0.0
 10
244.6426862957
 20
264.4586846815
 10
244.6446664761
 20
264.4648331365
 10
244.6481369567
 20
264.4722430535
 10
244.6527713215
 20
264.4806471896
  0
LINE
  5
3BF
330
24F
100
AcDbEntity
  8
ALL_ASSEM_MEMBER
  6
Continuous
 62
     0
100
AcDbLine
 10
244.6530566716
 20
170.3111720006
 30
0.0
 11
244.6612805069
 21
170.303002019
 31
0.0
  0
LWPOLYLINE
  5
3C0
330
24F
100
AcDbEntity
  8
ALL_ASSEM_MEMBER
  6
Continuous
 62
     0
100
AcDbPolyline
 90
        4
 70
     0
 43
0.0
 10
244.6612805069
 20
170.303002019
 10
244.6689040515
 20
170.2935909011
 10
244.6755431292
 20
170.2832724448
 10
244.6808291777
 20
170.2725107794
  0
LINE
  5
3C1
330
24F
100
AcDbEntity
  8
ALL_ASSEM_MEMBER
  6
Continuous
 62
     0
100
AcDbLine
 10
244.6076930709
 20
170.3334311131
 30
0.0
 11
244.6341699613
 21
170.2721920468
 31
0.0
  0
LINE
  5
3C2
330
24F
100
AcDbEntity
  8
ALL_ASSEM_MEMBER
  6
Continuous
 62
     0
100
AcDbLine
 10
251.9289523362
 20
153.3999062818
 30
0.0
 11
244.6803764189
 21
170.165319968
 31
0.0
  0
LINE
  5
3C3
330
24F
100
AcDbEntity
  8
ALL_ASSEM_MEMBER
  6
Continuous
 62
     0
100
AcDbLine
 10
251.9748743481
 20
153.3999062818
 30
0.0
 11
244.7262984308
 21
170.165319968
 31
0.0
  0
LWPOLYLINE
  5
3C4
330
24F
100
AcDbEntity
  8
ALL_ASSEM_MEMBER
  6
Continuous
 62
     0
100
AcDbPolyline
 90
        3
 70
     0
 43
0.0
 10
244.7262984308
 20
170.165319968
 10
244.7041602409
 20
170.2170670785
 10
244.6808291777
 20
170.2725107794
  0
LWPOLYLINE
  5
3C5
330
24F
100
AcDbEntity
  8
ALL_ASSEM_MEMBER
  6
Continuous
 62
     0
100
AcDbPolyline
 90
        3
 70
     0
 43
0.0
 10
244.6349071658
 20
170.2725107794
 10
244.6581766647
 20
170.2172123074
 10
244.6803764189
 20
170.165319968
  0
LWPOLYLINE
  5
3C6
330
24F
100
AcDbEntity
  8
ALL_ASSEM_MEMBER
  6
Continuous
 62
     0
100
AcDbPolyline
 90
        4
 70
     0
 43
0.0
 10
244.6349071658
 20
170.2725107794
 10
244.6304413697
 20
170.2835280276
 10
244.6265890075
 20
170.2939313702
 10
244.6236280322
 20
170.3034671412
  0
LWPOLYLINE
  5
3C7
330
24F
100
AcDbEntity
  8
ALL_ASSEM_MEMBER
  6
Continuous
 62
     0
100
AcDbPolyline
 90
        4
 70
     0
 43
0.0
 10
251.9748743481
 20
153.3999062818
 10
251.979430433
 20
153.3870121267
 10
251.9821713547
 20
153.3737153801
 10
251.9830859866
 20
153.3602213137
  0
LINE
  5
3C8
330
24F
100
AcDbEntity
  8
ALL_ASSEM_MEMBER
  6
Continuous
 62
     0
100
AcDbLine
 10
244.6749035426
 20
170.3334311131
 30
0.0
 11
244.7262984308
 21
170.165319968
 31
0.0
  0
LWPOLYLINE
  5
3C9
330
24F
100
AcDbEntity
  8
ALL_ASSEM_MEMBER
  6
Continuous
 62
     0
100
AcDbPolyline
 90
        4
 70
     0
 43
0.0
 10
244.6603872794
 20
170.4326435332
 10
244.6620202483
 20
170.3987414658
 10
244.6668889859
 20
170.3654657368
 10
244.6749035426
 20
170.3334311131
  0
LWPOLYLINE
  5
3CA
330
24F
100
AcDbEntity
  8
ALL_ASSEM_MEMBER
  6
Continuous
 62
     0
100
AcDbPolyline
 90
        4
 70
     0
 43
0.0
 10
244.6603872794
 20
264.3074879048
 10
244.6635834128
 20
264.3548120748
 10
244.6730562405
 20
264.400424997
 10
244.6884632237
 20
264.4426773027
  0
LWPOLYLINE
  5
3CB
330
24F
100
AcDbEntity
  8
ALL_ASSEM_MEMBER
  6
Continuous
 62
     0
100
AcDbPolyline
 90
        3
 70
     0
 43
0.0
 10
244.6376286365
 20
170.321845125
 10
244.6449205788
 20
170.3175767706
 10
244.6530566716
 20
170.3111720006
  0
LWPOLYLINE
  5
3CC
330
24F
100
AcDbEntity
  8
ALL_ASSEM_MEMBER
  6
Continuous
 62
     0
100
AcDbPolyline
 90
        4
 70
     0
 43
0.0
 10
244.6236280322
 20
170.3034671412
 10
244.6219632344
 20
170.3115937261
 10
244.6218824558
 20
170.3177912743
 10
244.6234637949
 20
170.3219594183
  0
LINE
  5
3CD
330
24F
100
AcDbEntity
  8
ALL_ASSEM_MEMBER
  6
Continuous
 62
     0
100
AcDbLine
 10
244.5871639747
 20
264.3074879048
 30
0.0
 11
244.5871639747
 21
170.4326435332
 31
0.0
  0
LINE
  5
3CE
330
24F
100
AcDbEntity
  8
ALL_ASSEM_MEMBER
  6
Continuous
 62
     0
100
AcDbLine
 10
244.6603872794
 20
170.4326435332
 30
0.0
 11
244.6603872794
 21
264.3074879048
 31
0.0
  0
LINE
  5
3CF
330
24F
100
AcDbEntity
  8
ALL_ASSEM_MEMBER
  6
Continuous
 62
     0
100
AcDbLine
 10
249.3371639747
 20
147.8809133764
 30
0.0
 11
249.3371639747
 21
144.3809133764
 31
0.0
  0
LINE
  5
3D0
330
24F
100
AcDbEntity
  8
ALL_ASSEM_MEMBER
  6
Continuous
 62
     0
100
AcDbLine
 10
249.3371639747
 20
144.3809133764
 30
0.0
 11
272.0871639747
 21
144.3809133764
 31
0.0
  0
LINE
  5
3D1
330
24F
100
AcDbEntity
  8
ALL_ASSEM_MEMBER
  6
Continuous
 62
     0
100
AcDbLine
 10
251.9371639747
 20
153.3602213137
 30
0.0
 11
251.9371639747
 21
149.3809133764
 31
0.0
  0
LINE
  5
3D2
330
24F
100
AcDbEntity
  8
ALL_ASSEM_MEMBER
  6
Continuous
 62
     0
100
AcDbLine
 10
251.9830859866
 20
153.3602213137
 30
0.0
 11
251.9830859866
 21
149.3809133764
 31
0.0
  0
LINE
  5
3D3
102
{ACAD_REACTORS
330
97B
102
}
330
24F
100
AcDbEntity
  8
ALL_ASSEM_MEMBER
  6
Continuous
 62
     0
100
AcDbLine
 10
249.8371639747
 20
148.3809133764
 30
0.0
 11
277.5871639747
 21
148.3809133764
 31
0.0
  0
LINE
  5
3D4
330
24F
100
AcDbEntity
  8
ALL_ASSEM_MEMBER
  6
Continuous
 62
     0
100
AcDbLine
 10
372.2371639747
 20
149.3809133764
 30
0.0
 11
372.1912419628
 21
149.3809133764
 31
0.0
  0
LINE
  5
3D5
330
24F
100
AcDbEntity
  8
ALL_ASSEM_MEMBER
  6
Continuous
 62
     0
100
AcDbLine
 10
337.0480317634
 20
149.3809133764
 30
0.0
 11
336.9371662195
 21
149.3809133764
 31
0.0
  0
LINE
  5
3D6
330
24F
100
AcDbEntity
  8
ALL_ASSEM_MEMBER
  6
Continuous
 62
     0
100
AcDbLine
 10
372.1912419628
 20
149.3809133764
 30
0.0
 11
337.0480317634
 21
149.3809133764
 31
0.0
  0
LINE
  5
3D7
330
24F
100
AcDbEntity
  8
ALL_ASSEM_MEMBER
  6
Continuous
 62
     0
100
AcDbLine
 10
336.9371662195
 20
149.3809133764
 30
0.0
 11
287.23716173
 21
149.3809133764
 31
0.0
  0
LINE
  5
3D8
330
24F
100
AcDbEntity
  8
ALL_ASSEM_MEMBER
  6
Continuous
 62
     0
100
AcDbLine
 10
287.1262961861
 20
149.3809133764
 30
0.0
 11
251.9830859866
 21
149.3809133764
 31
0.0
  0
LINE
  5
3D9
330
24F
100
AcDbEntity
  8
ALL_ASSEM_MEMBER
  6
Continuous
 62
     0
100
AcDbLine
 10
251.9371639747
 20
149.3809133764
 30
0.0
 11
251.9830859866
 21
149.3809133764
 31
0.0
  0
LINE
  5
3DA
330
24F
100
AcDbEntity
  8
ALL_ASSEM_MEMBER
  6
Continuous
 62
     0
100
AcDbLine
 10
287.1262961861
 20
149.3809133764
 30
0.0
 11
287.23716173
 21
149.3809133764
 31
0.0
  0
LINE
  5
3DB
330
24F
100
AcDbEntity
  8
ALL_ASSEM_MEMBER
  6
Continuous
 62
     0
100
AcDbLine
 10
336.9419657462
 20
152.0809133764
 30
0.0
 11
336.9371662195
 21
152.0809133764
 31
0.0
  0
LINE
  5
3DC
330
24F
100
AcDbEntity
  8
ALL_ASSEM_MEMBER
  6
Continuous
 62
     0
100
AcDbLine
 10
287.23716173
 20
152.0809133764
 30
0.0
 11
287.2323622033
 21
152.0809133764
 31
0.0
  0
LINE
  5
3DD
330
24F
100
AcDbEntity
  8
ALL_ASSEM_MEMBER
  6
Continuous
 62
     0
100
AcDbLine
 10
336.9419657462
 20
152.3809133764
 30
0.0
 11
336.9371662195
 21
152.3809133764
 31
0.0
  0
LINE
  5
3DE
330
24F
100
AcDbEntity
  8
ALL_ASSEM_MEMBER
  6
Continuous
 62
     0
100
AcDbLine
 10
287.23716173
 20
152.3809133764
 30
0.0
 11
287.2323622033
 21
152.3809133764
 31
0.0
  0
LINE
  5
3DF
330
24F
100
AcDbEntity
  8
ALL_ASSEM_MEMBER
  6
Continuous
 62
     0
100
AcDbLine
 10
336.9419657462
 20
152.6809133764
 30
0.0
 11
336.9371662195
 21
152.6809133764
 31
0.0
  0
LINE
  5
3E0
330
24F
100
AcDbEntity
  8
ALL_ASSEM_MEMBER
  6
Continuous
 62
     0
100
AcDbLine
 10
287.23716173
 20
152.6809133764
 30
0.0
 11
287.2323622033
 21
152.6809133764
 31
0.0
  0
LINE
  5
3E1
330
24F
100
AcDbEntity
  8
ALL_ASSEM_MEMBER
  6
Continuous
 62
     0
100
AcDbLine
 10
372.2371639747
 20
153.3602213137
 30
0.0
 11
336.9419657462
 21
153.3602213137
 31
0.0
  0
LINE
  5
3E2
330
24F
100
AcDbEntity
  8
ALL_ASSEM_MEMBER
  6
Continuous
 62
     0
100
AcDbLine
 10
336.9371662195
 20
153.3602213137
 30
0.0
 11
287.23716173
 21
153.3602213137
 31
0.0
  0
LINE
  5
3E3
330
24F
100
AcDbEntity
  8
ALL_ASSEM_MEMBER
  6
Continuous
 62
     0
100
AcDbLine
 10
251.9371639747
 20
153.3602213137
 30
0.0
 11
287.2323622033
 21
153.3602213137
 31
0.0
  0
LINE
  5
3E4
330
24F
100
AcDbEntity
  8
ALL_ASSEM_MEMBER
  6
Continuous
 62
     0
100
AcDbLine
 10
372.1994536013
 20
153.3999062818
 30
0.0
 11
337.0514331354
 21
153.3999062818
 31
0.0
  0
LINE
  5
3E5
330
24F
100
AcDbEntity
  8
ALL_ASSEM_MEMBER
  6
Continuous
 62
     0
100
AcDbLine
 10
336.9405675915
 20
153.3999062818
 30
0.0
 11
287.233760358
 21
153.3999062818
 31
0.0
  0
LINE
  5
3E6
330
24F
100
AcDbEntity
  8
ALL_ASSEM_MEMBER
  6
Continuous
 62
     0
100
AcDbLine
 10
287.1228948141
 20
153.3999062818
 30
0.0
 11
251.9748743481
 21
153.3999062818
 31
0.0
  0
LINE
  5
3E7
330
24F
100
AcDbEntity
  8
ALL_ASSEM_MEMBER
  6
Continuous
 62
     0
100
AcDbLine
 10
298.8571640649
 20
272.6809132863
 30
0.0
 11
298.7871640735
 21
272.6109132776
 31
0.0
  0
LWPOLYLINE
  5
3E8
330
24F
100
AcDbEntity
  8
ALL_ASSEM_MEMBER
  6
Continuous
 62
     0
100
AcDbPolyline
 90
        8
 70
     0
 43
0.0
 10
284.2112194906
 20
264.4893951958
 10
284.2078373947
 20
264.4807330878
 10
284.202190162
 20
264.4724904317
 10
284.1944650019
 20
264.4650878084
 10
284.1850971676
 20
264.4589449614
 10
284.1747204344
 20
264.4543864814
 10
284.1639328144
 20
264.4515658691
 10
284.1533773254
 20
264.4505568666
  0
LINE
  5
3E9
330
24F
100
AcDbEntity
  8
ALL_ASSEM_MEMBER
  6
Continuous
 62
     0
100
AcDbLine
 10
284.0826011541
 20
264.4426773027
 30
0.0
 11
284.1389139519
 21
264.5665591374
 31
0.0
  0
LWPOLYLINE
  5
3EA
330
24F
100
AcDbEntity
  8
ALL_ASSEM_MEMBER
  6
Continuous
 62
     0
100
AcDbPolyline
 90
        6
 70
     0
 43
0.0
 10
340.0118552492
 20
170.3219594183
 10
340.0238083277
 20
170.3240436577
 10
340.0352676465
 20
170.3239904339
 10
340.0458301742
 20
170.321845125
 10
340.0552778307
 20
170.3175767706
 10
340.0596495865
 20
170.3144666874
  0
LWPOLYLINE
  5
3EB
330
24F
100
AcDbEntity
  8
ALL_ASSEM_MEMBER
  6
Continuous
 62
     0
100
AcDbPolyline
 90
        5
 70
     0
 43
0.0
 10
284.1511103072
 20
170.3239904339
 10
284.1629026118
 20
170.321845125
 10
284.1747392956
 20
170.3175767706
 10
284.1860808837
 20
170.3111720006
 10
284.195975908
 20
170.303002019
  0
LINE
  5
3EC
330
24F
100
AcDbEntity
  8
ALL_ASSEM_MEMBER
  6
Continuous
 62
     0
100
AcDbLine
 10
284.195975908
 20
170.303002019
 30
0.0
 11
284.2038034268
 21
170.2935909011
 31
0.0
  0
LWPOLYLINE
  5
3ED
330
24F
100
AcDbEntity
  8
ALL_ASSEM_MEMBER
  6
Continuous
 62
     0
100
AcDbPolyline
 90
        3
 70
     0
 43
0.0
 10
284.2038034268
 20
170.2935909011
 10
284.2093582068
 20
170.2832724448
 10
284.2124679238
 20
170.2725107794
  0
LWPOLYLINE
  5
3EE
330
24F
100
AcDbEntity
  8
ALL_ASSEM_MEMBER
  6
Continuous
 62
     0
100
AcDbPolyline
 90
        3
 70
     0
 43
0.0
 10
284.2112194906
 20
264.4893951958
 10
284.2216026765
 20
264.5296598003
 10
284.2313019051
 20
264.5665591374
  0
LWPOLYLINE
  5
3EF
330
24F
100
AcDbEntity
  8
ALL_ASSEM_MEMBER
  6
Continuous
 62
     0
100
AcDbPolyline
 90
        3
 70
     0
 43
0.0
 10
284.1389139519
 20
264.5665591374
 10
284.1292571503
 20
264.5298229576
 10
284.1188315374
 20
264.4893951958
  0
LINE
  5
3F0
330
24F
100
AcDbEntity
  8
ALL_ASSEM_MEMBER
  6
Continuous
 62
     0
100
AcDbLine
 10
285.953441202
 20
271.3809133764
 30
0.0
 11
284.1389139519
 21
264.5665591374
 31
0.0
  0
LINE
  5
3F1
330
24F
100
AcDbEntity
  8
ALL_ASSEM_MEMBER
  6
Continuous
 62
     0
100
AcDbLine
 10
286.0458291552
 20
271.3809133764
 30
0.0
 11
284.2313019051
 21
264.5665591374
 31
0.0
  0
LINE
  5
3F2
330
24F
100
AcDbEntity
  8
ALL_ASSEM_MEMBER
  6
Continuous
 62
     0
100
AcDbLine
 10
379.5666348785
 20
170.3334311131
 30
0.0
 11
244.6076930709
 21
170.3334311131
 31
0.0
  0
LINE
  5
3F3
330
24F
100
AcDbEntity
  8
ALL_ASSEM_MEMBER
  6
Continuous
 62
     0
100
AcDbLine
 10
379.5871639747
 20
170.4326435332
 30
0.0
 11
244.5871639747
 21
170.4326435332
 31
0.0
  0
LINE
  5
3F4
330
24F
100
AcDbEntity
  8
ALL_ASSEM_MEMBER
  6
Continuous
 62
     0
100
AcDbLine
 10
284.069041473
 20
170.3334311131
 30
0.0
 11
284.1204363612
 21
170.165319968
 31
0.0
  0
LINE
  5
3F5
330
24F
100
AcDbEntity
  8
ALL_ASSEM_MEMBER
  6
Continuous
 62
     0
100
AcDbLine
 10
284.2034738835
 20
170.2767397595
 30
0.0
 11
284.2177926205
 21
170.2248474201
 31
0.0
  0
LWPOLYLINE
  5
3F6
330
24F
100
AcDbEntity
  8
ALL_ASSEM_MEMBER
  6
Continuous
 62
     0
100
AcDbPolyline
 90
        6
 70
     0
 43
0.0
 10
284.1016023799
 20
170.2725107794
 10
284.100717993
 20
170.2835280276
 10
284.1020116016
 20
170.2939313702
 10
284.1056225572
 20
170.3034671412
 10
284.1115480334
 20
170.3115937261
 10
284.1146776103
 20
170.3144775253
  0
LWPOLYLINE
  5
3F7
330
24F
100
AcDbEntity
  8
ALL_ASSEM_MEMBER
  6
Continuous
 62
     0
100
AcDbPolyline
 90
        4
 70
     0
 43
0.0
 10
284.0545252098
 20
264.3074879048
 10
284.0577213432
 20
264.3548120748
 10
284.0671941709
 20
264.400424997
 10
284.0826011541
 20
264.4426773027
  0
LINE
  5
3F8
330
24F
100
AcDbEntity
  8
ALL_ASSEM_MEMBER
  6
Continuous
 62
     0
100
AcDbLine
 10
323.8571640649
 20
272.6809132863
 30
0.0
 11
323.7871640735
 21
272.6109132776
 31
0.0
  0
LINE
  5
3F9
330
24F
100
AcDbEntity
  8
ALL_ASSEM_MEMBER
  6
Continuous
 62
     0
100
AcDbLine
 10
337.0514331354
 20
153.3999062818
 30
0.0
 11
336.9540768761
 21
153.4594337339
 31
0.0
  0
LINE
  5
3FA
330
24F
100
AcDbEntity
  8
ALL_ASSEM_MEMBER
  6
Continuous
 62
     0
100
AcDbLine
 10
284.1972215098
 20
170.3015044173
 30
0.0
 11
284.2034738835
 21
170.2767397595
 31
0.0
  0
LINE
  5
3FB
330
24F
100
AcDbEntity
  8
ALL_ASSEM_MEMBER
  6
Continuous
 62
     0
100
AcDbLine
 10
287.2202510734
 20
153.4594337339
 30
0.0
 11
287.2269707232
 21
153.4271983461
 31
0.0
  0
LINE
  5
3FC
330
24F
100
AcDbEntity
  8
ALL_ASSEM_MEMBER
  6
Continuous
 62
     0
100
AcDbLine
 10
287.1228948141
 20
153.3999062818
 30
0.0
 11
284.1204363612
 21
170.165319968
 31
0.0
  0
LINE
  5
3FD
330
24F
100
AcDbEntity
  8
ALL_ASSEM_MEMBER
  6
Continuous
 62
     0
100
AcDbLine
 10
287.2202510734
 20
153.4594337339
 30
0.0
 11
284.2177926205
 21
170.2248474201
 31
0.0
  0
LINE
  5
3FE
330
24F
100
AcDbEntity
  8
ALL_ASSEM_MEMBER
  6
Continuous
 62
     0
100
AcDbLine
 10
287.233760358
 20
153.3999062818
 30
0.0
 11
284.2313019051
 21
170.165319968
 31
0.0
  0
LWPOLYLINE
  5
3FF
330
24F
100
AcDbEntity
  8
ALL_ASSEM_MEMBER
  6
Continuous
 62
     0
100
AcDbPolyline
 90
        3
 70
     0
 43
0.0
 10
284.2313019051
 20
170.165319968
 10
284.2221319666
 20
170.2170670785
 10
284.2124679238
 20
170.2725107794
  0
LWPOLYLINE
  5
400
330
24F
100
AcDbEntity
  8
ALL_ASSEM_MEMBER
  6
Continuous
 62
     0
100
AcDbPolyline
 90
        3
 70
     0
 43
0.0
 10
284.1016023799
 20
170.2725107794
 10
284.111240922
 20
170.2172123074
 10
284.1204363612
 20
170.165319968
  0
LWPOLYLINE
  5
401
330
24F
100
AcDbEntity
  8
ALL_ASSEM_MEMBER
  6
Continuous
 62
     0
100
AcDbPolyline
 90
        4
 70
     0
 43
0.0
 10
287.1228948141
 20
153.3999062818
 10
287.1247820062
 20
153.3870121267
 10
287.1259173332
 20
153.3737153801
 10
287.1262961861
 20
153.3602213137
  0
LWPOLYLINE
  5
402
330
24F
100
AcDbEntity
  8
ALL_ASSEM_MEMBER
  6
Continuous
 62
     0
100
AcDbPolyline
 90
        4
 70
     0
 43
0.0
 10
287.233760358
 20
153.3999062818
 10
287.2356475501
 20
153.3870121267
 10
287.2367828771
 20
153.3737153801
 10
287.23716173
 20
153.3602213137
  0
LINE
  5
403
330
24F
100
AcDbEntity
  8
ALL_ASSEM_MEMBER
  6
Continuous
 62
     0
100
AcDbLine
 10
287.2269707232
 20
153.4271983461
 30
0.0
 11
287.2310132367
 21
153.3939564797
 31
0.0
  0
LWPOLYLINE
  5
404
330
24F
100
AcDbEntity
  8
ALL_ASSEM_MEMBER
  6
Continuous
 62
     0
100
AcDbPolyline
 90
        4
 70
     0
 43
0.0
 10
284.0545252098
 20
170.4326435332
 10
284.0561581787
 20
170.3987414658
 10
284.0610269163
 20
170.3654657368
 10
284.069041473
 20
170.3334311131
  0
LINE
  5
405
330
24F
100
AcDbEntity
  8
ALL_ASSEM_MEMBER
  6
Continuous
 62
     0
100
AcDbLine
 10
287.2310132367
 20
153.3939564797
 30
0.0
 11
287.2323622033
 21
153.3602213137
 31
0.0
  0
LINE
  5
406
330
24F
100
AcDbEntity
  8
ALL_ASSEM_MEMBER
  6
Continuous
 62
     0
100
AcDbLine
 10
284.0545252098
 20
170.4326435332
 30
0.0
 11
284.0545252098
 21
264.3074879048
 31
0.0
  0
LINE
  5
407
330
24F
100
AcDbEntity
  8
ALL_ASSEM_MEMBER
  6
Continuous
 62
     0
100
AcDbLine
 10
284.2313019051
 20
170.165319968
 30
0.0
 11
284.2313019051
 21
264.5665591374
 31
0.0
  0
LINE
  5
408
330
24F
100
AcDbEntity
  8
ALL_ASSEM_MEMBER
  6
Continuous
 62
     0
100
AcDbLine
 10
287.1262961861
 20
153.3602213137
 30
0.0
 11
287.1262961861
 21
149.3809133764
 31
0.0
  0
LINE
  5
409
330
24F
100
AcDbEntity
  8
ALL_ASSEM_MEMBER
  6
Continuous
 62
     0
100
AcDbLine
 10
287.2323622033
 20
153.3602213137
 30
0.0
 11
287.2323622033
 21
149.3809133764
 31
0.0
  0
LINE
  5
40A
330
24F
100
AcDbEntity
  8
ALL_ASSEM_MEMBER
  6
Continuous
 62
     0
100
AcDbLine
 10
287.23716173
 20
153.3602213137
 30
0.0
 11
287.23716173
 21
149.3809133764
 31
0.0
  0
LINE
  5
40B
330
24F
100
AcDbEntity
  8
ALL_ASSEM_MEMBER
  6
Continuous
 62
     0
100
AcDbLine
 10
338.2208867475
 20
271.3809133764
 30
0.0
 11
338.1465054149
 21
271.3132905333
 31
0.0
  0
LINE
  5
40C
330
24F
100
AcDbEntity
  8
ALL_ASSEM_MEMBER
  6
Continuous
 62
     0
100
AcDbLine
 10
372.2453756132
 20
153.3999062818
 30
0.0
 11
372.2066858438
 21
153.4166339174
 31
0.0
  0
LWPOLYLINE
  5
40D
330
24F
100
AcDbEntity
  8
ALL_ASSEM_MEMBER
  6
Continuous
 62
     0
100
AcDbPolyline
 90
        3
 70
     0
 43
0.0
 10
244.6442101713
 20
264.4514096859
 10
244.6425075025
 20
264.4540918305
 10
244.6426862957
 20
264.4586846815
  0
LINE
  5
40E
330
24F
100
AcDbEntity
  8
ALL_ASSEM_MEMBER
  6
Continuous
 62
     0
100
AcDbLine
 10
340.0354139976
 20
264.5665591374
 30
0.0
 11
339.9607210376
 21
264.4986529822
 31
0.0
  0
LINE
  5
40F
330
24F
100
AcDbEntity
  8
ALL_ASSEM_MEMBER
  6
Continuous
 62
     0
100
AcDbLine
 10
340.0538915882
 20
170.165319968
 30
0.0
 11
339.9565353289
 21
170.2248474201
 31
0.0
  0
LINE
  5
410
330
24F
100
AcDbEntity
  8
ALL_ASSEM_MEMBER
  6
Continuous
 62
     0
100
AcDbLine
 10
298.7871639747
 20
272.6109133764
 30
0.0
 11
298.7871639747
 21
271.5809133764
 31
0.0
  0
LINE
  5
411
330
24F
100
AcDbEntity
  8
ALL_ASSEM_MEMBER
  6
Continuous
 62
     0
100
AcDbLine
 10
340.0554964121
 20
264.4893951958
 30
0.0
 11
340.0181032203
 21
264.4508675628
 31
0.0
  0
LWPOLYLINE
  5
412
330
24F
100
AcDbEntity
  8
ALL_ASSEM_MEMBER
  6
Continuous
 62
     0
100
AcDbPolyline
 90
        5
 70
     0
 43
0.0
 10
340.0506822766
 20
264.4618316343
 10
340.0478314213
 20
264.4589449614
 10
340.0406997101
 20
264.4543864814
 10
340.0319806366
 20
264.4515658691
 10
340.0221762619
 20
264.4505568666
  0
LINE
  5
413
330
24F
100
AcDbEntity
  8
ALL_ASSEM_MEMBER
  6
Continuous
 62
     0
100
AcDbLine
 10
375.0871639747
 20
271.3809133764
 30
0.0
 11
375.0600860134
 21
271.3635061156
 31
0.0
  0
LINE
  5
414
330
24F
100
AcDbEntity
  8
ALL_ASSEM_MEMBER
  6
Continuous
 62
     0
100
AcDbLine
 10
340.0727255695
 20
170.2725107794
 30
0.0
 11
340.0038685911
 21
170.319136542
 31
0.0
  0
LWPOLYLINE
  5
415
330
24F
100
AcDbEntity
  8
ALL_ASSEM_MEMBER
  6
Continuous
 62
     0
100
AcDbPolyline
 90
        7
 70
     0
 43
0.0
 10
301.1966112939
 20
271.3809133764
 10
301.1931007995
 20
271.4331371604
 10
301.1766135848
 20
271.4823853558
 10
301.1487038622
 20
271.5244299657
 10
301.1121786928
 20
271.5558139156
 10
301.070056587
 20
271.5747888808
 10
301.025812788
 20
271.5809133764
  0
LINE
  5
416
330
24F
100
AcDbEntity
  8
ALL_ASSEM_MEMBER
  6
Continuous
 62
     0
100
AcDbLine
 10
300.3871639747
 20
272.6109133764
 30
0.0
 11
300.3871639747
 21
271.5809133764
 31
0.0
  0
LINE
  5
417
330
24F
100
AcDbEntity
  8
ALL_ASSEM_MEMBER
  6
Continuous
 62
     0
100
AcDbLine
 10
244.6234637949
 20
170.3219594183
 30
0.0
 11
244.6255879781
 21
170.3236455937
 31
0.0
  0
LINE
  5
418
330
24F
100
AcDbEntity
  8
ALL_ASSEM_MEMBER
  6
Continuous
 62
     0
100
AcDbLine
 10
379.5163035087
 20
264.4893951958
 30
0.0
 11
379.4893246939
 21
264.4719430298
 31
0.0
  0
LINE
  5
419
330
24F
100
AcDbEntity
  8
ALL_ASSEM_MEMBER
  6
Continuous
 62
     0
100
AcDbLine
 10
379.4678202712
 20
264.5665591374
 30
0.0
 11
379.4407423099
 21
264.5491518766
 31
0.0
  0
LINE
  5
41A
330
24F
100
AcDbEntity
  8
ALL_ASSEM_MEMBER
  6
Continuous
 62
     0
100
AcDbLine
 10
379.4939515305
 20
170.165319968
 30
0.0
 11
379.4552617611
 21
170.1820476036
 31
0.0
  0
LINE
  5
41B
330
24F
100
AcDbEntity
  8
ALL_ASSEM_MEMBER
  6
Continuous
 62
     0
100
AcDbLine
 10
379.5394207837
 20
170.2725107794
 30
0.0
 11
379.5007837777
 21
170.2892878714
 31
0.0
  0
LWPOLYLINE
  5
41C
330
24F
100
AcDbEntity
  8
ALL_ASSEM_MEMBER
  6
Continuous
 62
     0
100
AcDbPolyline
 90
        6
 70
     0
 43
0.0
 10
340.0596495865
 20
170.3144666874
 10
340.0631811656
 20
170.3111720006
 10
340.068951008
 20
170.303002019
 10
340.0723972465
 20
170.2935909011
 10
340.073613814
 20
170.2832724448
 10
340.0727255695
 20
170.2725107794
  0
LINE
  5
41D
330
24F
100
AcDbEntity
  8
02__ASM_ALL_AXES
  6
CENTER
 62
     2
100
AcDbLine
 10
312.0871639747
 20
142.3809133764
 30
0.0
 11
312.0871639747
 21
273.3809133764
 31
0.0
  0
LINE
  5
41E
330
24F
100
AcDbEntity
  8
ALL_ASSEM_MEMBER
  6
Continuous
 62
     0
100
AcDbLine
 10
323.7871639747
 20
272.6109133764
 30
0.0
 11
323.7871639747
 21
271.5809133764
 31
0.0
  0
LINE
  5
41F
330
24F
100
AcDbEntity
  8
ALL_ASSEM_MEMBER
  6
Continuous
 62
     0
100
AcDbLine
 10
325.3871639747
 20
272.6109133764
 30
0.0
 11
325.3871639747
 21
271.5809133764
 31
0.0
  0
LINE
  5
420
330
24F
100
AcDbEntity
  8
ALL_ASSEM_MEMBER
  6
Continuous
 62
     0
100
AcDbLine
 10
244.6349071658
 20
170.2725107794
 30
0.0
 11
244.6735441717
 21
170.2892878714
 31
0.0
  0
LINE
  5
421
330
24F
100
AcDbEntity
  8
ALL_ASSEM_MEMBER
  6
Continuous
 62
     0
100
AcDbLine
 10
244.6803764189
 20
170.165319968
 30
0.0
 11
244.7190661884
 21
170.1820476036
 31
0.0
  0
LINE
  5
422
330
24F
100
AcDbEntity
  8
ALL_ASSEM_MEMBER
  6
Continuous
 62
     0
100
AcDbLine
 10
244.7065076782
 20
264.5665591374
 30
0.0
 11
244.7335856395
 21
264.5491518766
 31
0.0
  0
LINE
  5
423
330
24F
100
AcDbEntity
  8
ALL_ASSEM_MEMBER
  6
Continuous
 62
     0
100
AcDbLine
 10
244.6580244408
 20
264.4893951958
 30
0.0
 11
244.6850032556
 21
264.4719430298
 31
0.0
  0
LWPOLYLINE
  5
424
330
24F
100
AcDbEntity
  8
ALL_ASSEM_MEMBER
  6
Continuous
 62
     0
100
AcDbPolyline
 90
        3
 70
     0
 43
0.0
 10
379.5487513115
 20
170.323645985
 10
379.5509502628
 20
170.321845125
 10
379.552474583
 20
170.3175767706
  0
LWPOLYLINE
  5
425
330
24F
100
AcDbEntity
  8
ALL_ASSEM_MEMBER
  6
Continuous
 62
     0
100
AcDbPolyline
 90
        5
 70
     0
 43
0.0
 10
284.1236412868
 20
264.4618323426
 10
284.1214623778
 20
264.4648331365
 10
284.1183749769
 20
264.4722430535
 10
284.1175408921
 20
264.4806471896
 10
284.1188315374
 20
264.4893951958
  0
LWPOLYLINE
  5
426
330
24F
100
AcDbEntity
  8
ALL_ASSEM_MEMBER
  6
Continuous
 62
     0
100
AcDbPolyline
 90
        7
 70
     0
 43
0.0
 10
326.1966112939
 20
271.3809133764
 10
326.1931007995
 20
271.4331371604
 10
326.1766135848
 20
271.4823853558
 10
326.1487038622
 20
271.5244299657
 10
326.1121786928
 20
271.5558139156
 10
326.070056587
 20
271.5747888808
 10
326.025812788
 20
271.5809133764
  0
LWPOLYLINE
  5
427
330
24F
100
AcDbEntity
  8
ALL_ASSEM_MEMBER
  6
Continuous
 62
     0
100
AcDbPolyline
 90
        5
 70
     0
 43
0.0
 10
284.1146776103
 20
170.3144775253
 10
284.1194057307
 20
170.3177912743
 10
284.1288626563
 20
170.3219594183
 10
284.1396202335
 20
170.3240436577
 10
284.1511103072
 20
170.3239904339
  0
LINE
  5
428
330
24F
100
AcDbEntity
  8
ALL_ASSEM_MEMBER
  6
Continuous
 62
     0
100
AcDbLine
 10
284.1016023799
 20
170.2725107794
 30
0.0
 11
284.1704435458
 21
170.3191258347
 31
0.0
  0
LWPOLYLINE
  5
429
330
24F
100
AcDbEntity
  8
ALL_ASSEM_MEMBER
  6
Continuous
 62
     0
100
AcDbPolyline
 90
        4
 70
     0
 43
0.0
 10
244.6255879781
 20
170.3236455937
 10
244.6267242279
 20
170.3240436577
 10
244.6315143271
 20
170.3239904339
 10
244.6376286365
 20
170.321845125
  0
LINE
  5
42A
330
24F
100
AcDbEntity
  8
ALL_ASSEM_MEMBER
  6
Continuous
 62
     0
100
AcDbLine
 10
249.0871639747
 20
271.3809133764
 30
0.0
 11
249.114241936
 21
271.3635061156
 31
0.0
  0
LINE
  5
42B
330
24F
100
AcDbEntity
  8
ALL_ASSEM_MEMBER
  6
Continuous
 62
     0
100
AcDbLine
 10
284.1188315374
 20
264.4893951958
 30
0.0
 11
284.1562589338
 21
264.4508323205
 31
0.0
  0
LINE
  5
42C
330
24F
100
AcDbEntity
  8
ALL_ASSEM_MEMBER
  6
Continuous
 62
     0
100
AcDbLine
 10
336.9371662195
 20
153.3602213137
 30
0.0
 11
336.9371662195
 21
149.3809133764
 31
0.0
  0
LINE
  5
42D
330
24F
100
AcDbEntity
  8
ALL_ASSEM_MEMBER
  6
Continuous
 62
     0
100
AcDbLine
 10
336.9419657462
 20
153.3602213137
 30
0.0
 11
336.9419657462
 21
149.3809133764
 31
0.0
  0
LINE
  5
42E
330
24F
100
AcDbEntity
  8
ALL_ASSEM_MEMBER
  6
Continuous
 62
     0
100
AcDbLine
 10
337.0480317634
 20
153.3602213137
 30
0.0
 11
337.0480317634
 21
149.3809133764
 31
0.0
  0
LINE
  5
42F
330
24F
100
AcDbEntity
  8
ALL_ASSEM_MEMBER
  6
Continuous
 62
     0
100
AcDbLine
 10
284.1204363612
 20
170.165319968
 30
0.0
 11
284.2177926205
 21
170.2248474201
 31
0.0
  0
LINE
  5
430
330
24F
100
AcDbEntity
  8
ALL_ASSEM_MEMBER
  6
Continuous
 62
     0
100
AcDbLine
 10
284.1389139519
 20
264.5665591374
 30
0.0
 11
284.2136068464
 21
264.4986530417
 31
0.0
  0
LWPOLYLINE
  5
431
330
24F
100
AcDbEntity
  8
ALL_ASSEM_MEMBER
  6
Continuous
 62
     0
100
AcDbPolyline
 90
        4
 70
     0
 43
0.0
 10
340.1198027396
 20
264.3074879048
 10
340.1166066062
 20
264.3548120748
 10
340.1071337786
 20
264.400424997
 10
340.0917267954
 20
264.4426773027
  0
LINE
  5
432
330
24F
100
AcDbEntity
  8
ALL_ASSEM_MEMBER
  6
Continuous
 62
     0
100
AcDbLine
 10
339.9430260443
 20
170.165319968
 30
0.0
 11
339.9430260443
 21
264.5665591374
 31
0.0
  0
LINE
  5
433
330
24F
100
AcDbEntity
  8
ALL_ASSEM_MEMBER
  6
Continuous
 62
     0
100
AcDbLine
 10
340.1198027396
 20
170.4326435332
 30
0.0
 11
340.1198027396
 21
264.3074879048
 31
0.0
  0
LINE
  5
434
330
24F
100
AcDbEntity
  8
ALL_ASSEM_MEMBER
  6
Continuous
 62
     0
100
AcDbLine
 10
336.9433147127
 20
153.3939564797
 30
0.0
 11
336.9419657462
 21
153.3602213137
 31
0.0
  0
LWPOLYLINE
  5
435
330
24F
100
AcDbEntity
  8
ALL_ASSEM_MEMBER
  6
Continuous
 62
     0
100
AcDbPolyline
 90
        4
 70
     0
 43
0.0
 10
340.1198027396
 20
170.4326435332
 10
340.1181697708
 20
170.3987414658
 10
340.1133010332
 20
170.3654657368
 10
340.1052864765
 20
170.3334311131
  0
LINE
  5
436
330
24F
100
AcDbEntity
  8
ALL_ASSEM_MEMBER
  6
Continuous
 62
     0
100
AcDbLine
 10
336.9473572263
 20
153.4271983461
 30
0.0
 11
336.9433147127
 21
153.3939564797
 31
0.0
  0
LINE
  5
437
330
24F
100
AcDbEntity
  8
ALL_ASSEM_MEMBER
  6
Continuous
 62
     0
100
AcDbLine
 10
379.5318768683
 20
264.4543864814
 30
0.0
 11
379.530126282
 21
264.4514134309
 31
0.0
  0
LINE
  5
438
330
24F
100
AcDbEntity
  8
ALL_ASSEM_MEMBER
  6
Continuous
 62
     0
100
AcDbLine
 10
251.9289523362
 20
153.3999062818
 30
0.0
 11
251.9676421057
 21
153.4166339174
 31
0.0
  0
LINE
  5
439
330
24F
100
AcDbEntity
  8
ALL_ASSEM_MEMBER
  6
Continuous
 62
     0
100
AcDbLine
 10
285.953441202
 20
271.3809133764
 30
0.0
 11
286.0278225346
 21
271.3132905333
 31
0.0
  0
LWPOLYLINE
  5
43A
330
24F
100
AcDbEntity
  8
ALL_ASSEM_MEMBER
  6
Continuous
 62
     0
100
AcDbPolyline
 90
        4
 70
     0
 43
0.0
 10
336.9405675915
 20
153.3999062818
 10
336.9386803994
 20
153.3870121267
 10
336.9375450724
 20
153.3737153801
 10
336.9371662195
 20
153.3602213137
  0
LWPOLYLINE
  5
43B
330
24F
100
AcDbEntity
  8
ALL_ASSEM_MEMBER
  6
Continuous
 62
     0
100
AcDbPolyline
 90
        4
 70
     0
 43
0.0
 10
337.0514331354
 20
153.3999062818
 10
337.0495459433
 20
153.3870121267
 10
337.0484106163
 20
153.3737153801
 10
337.0480317634
 20
153.3602213137
  0
LWPOLYLINE
  5
43C
330
24F
100
AcDbEntity
  8
ALL_ASSEM_MEMBER
  6
Continuous
 62
     0
100
AcDbPolyline
 90
        3
 70
     0
 43
0.0
 10
339.9618600256
 20
170.2725107794
 10
339.9522214836
 20
170.2172123074
 10
339.9430260443
 20
170.165319968
  0
LWPOLYLINE
  5
43D
330
24F
100
AcDbEntity
  8
ALL_ASSEM_MEMBER
  6
Continuous
 62
     0
100
AcDbPolyline
 90
        3
 70
     0
 43
0.0
 10
340.0538915882
 20
170.165319968
 10
340.0630615268
 20
170.2170670785
 10
340.0727255695
 20
170.2725107794
  0
LINE
  5
43E
330
24F
100
AcDbEntity
  8
ALL_ASSEM_MEMBER
  6
Continuous
 62
     0
100
AcDbLine
 10
336.9405675915
 20
153.3999062818
 30
0.0
 11
339.9430260443
 21
170.165319968
 31
0.0
  0
LINE
  5
43F
330
24F
100
AcDbEntity
  8
ALL_ASSEM_MEMBER
  6
Continuous
 62
     0
100
AcDbLine
 10
336.9540768761
 20
153.4594337339
 30
0.0
 11
339.9565353289
 21
170.2248474201
 31
0.0
  0
LINE
  5
440
330
24F
100
AcDbEntity
  8
ALL_ASSEM_MEMBER
  6
Continuous
 62
     0
100
AcDbLine
 10
337.0514331354
 20
153.3999062818
 30
0.0
 11
340.0538915882
 21
170.165319968
 31
0.0
  0
LINE
  5
441
330
24F
100
AcDbEntity
  8
ALL_ASSEM_MEMBER
  6
Continuous
 62
     0
100
AcDbLine
 10
336.9540768761
 20
153.4594337339
 30
0.0
 11
336.9473572263
 21
153.4271983461
 31
0.0
  0
LINE
  5
442
330
24F
100
AcDbEntity
  8
ALL_ASSEM_MEMBER
  6
Continuous
 62
     0
100
AcDbLine
 10
339.9708158375
 20
170.2765945306
 30
0.0
 11
339.9770807234
 21
170.3014059781
 31
0.0
  0
LINE
  5
443
330
24F
100
AcDbEntity
  8
ALL_ASSEM_MEMBER
  6
Continuous
 62
     0
100
AcDbLine
 10
339.9565353289
 20
170.2248474201
 30
0.0
 11
339.9708158375
 21
170.2765945306
 31
0.0
  0
LWPOLYLINE
  5
444
330
24F
100
AcDbEntity
  8
ALL_ASSEM_MEMBER
  6
Continuous
 62
     0
100
AcDbPolyline
 90
        3
 70
     0
 43
0.0
 10
339.9618600256
 20
170.2725107794
 10
339.9650751098
 20
170.2835280276
 10
339.9707569108
 20
170.2939313702
  0
LINE
  5
445
330
24F
100
AcDbEntity
  8
ALL_ASSEM_MEMBER
  6
Continuous
 62
     0
100
AcDbLine
 10
340.1052864765
 20
170.3334311131
 30
0.0
 11
340.0538915882
 21
170.165319968
 31
0.0
  0
LINE
  5
446
330
24F
100
AcDbEntity
  8
ALL_ASSEM_MEMBER
  6
Continuous
 62
     0
100
AcDbLine
 10
287.1228948141
 20
153.3999062818
 30
0.0
 11
287.2202510734
 21
153.4594337339
 31
0.0
  0
LWPOLYLINE
  5
447
330
24F
100
AcDbEntity
  8
ALL_ASSEM_MEMBER
  6
Continuous
 62
     0
100
AcDbPolyline
 90
        3
 70
     0
 43
0.0
 10
379.530126282
 20
264.4514134309
 10
379.5270238657
 20
264.4505568666
 10
379.5220360307
 20
264.4513646021
  0
LINE
  5
448
330
24F
100
AcDbEntity
  8
ALL_ASSEM_MEMBER
  6
Continuous
 62
     0
100
AcDbLine
 10
300.3171638846
 20
272.6809132863
 30
0.0
 11
300.3871638759
 21
272.6109132776
 31
0.0
  0
LWPOLYLINE
  5
449
330
24F
100
AcDbEntity
  8
ALL_ASSEM_MEMBER
  6
Continuous
 62
     0
100
AcDbPolyline
 90
        5
 70
     0
 43
0.0
 10
340.0554964121
 20
264.4893951958
 10
340.0567841867
 20
264.4807330878
 10
340.0560126645
 20
264.4724904317
 10
340.0530208737
 20
264.4650878084
 10
340.0506822766
 20
264.4618316343
  0
LINE
  5
44A
330
24F
100
AcDbEntity
  8
ALL_ASSEM_MEMBER
  6
Continuous
 62
     0
100
AcDbLine
 10
338.1284987942
 20
271.3809133764
 30
0.0
 11
339.9430260443
 21
264.5665591374
 31
0.0
  0
LINE
  5
44B
330
24F
100
AcDbEntity
  8
ALL_ASSEM_MEMBER
  6
Continuous
 62
     0
100
AcDbLine
 10
338.2208867475
 20
271.3809133764
 30
0.0
 11
340.0354139976
 21
264.5665591374
 31
0.0
  0
LWPOLYLINE
  5
44C
330
24F
100
AcDbEntity
  8
ALL_ASSEM_MEMBER
  6
Continuous
 62
     0
100
AcDbPolyline
 90
        3
 70
     0
 43
0.0
 10
339.9430260443
 20
264.5665591374
 10
339.952682846
 20
264.5298229576
 10
339.9631084588
 20
264.4893951958
  0
LWPOLYLINE
  5
44D
330
24F
100
AcDbEntity
  8
ALL_ASSEM_MEMBER
  6
Continuous
 62
     0
100
AcDbPolyline
 90
        3
 70
     0
 43
0.0
 10
340.0554964121
 20
264.4893951958
 10
340.0451132262
 20
264.5296598003
 10
340.0354139976
 20
264.5665591374
  0
LWPOLYLINE
  5
44E
330
24F
100
AcDbEntity
  8
ALL_ASSEM_MEMBER
  6
Continuous
 62
     0
100
AcDbPolyline
 90
        5
 70
     0
 43
0.0
 10
339.9707569108
 20
170.2939313702
 10
339.9788245485
 20
170.3034671412
 10
339.9888692351
 20
170.3115937261
 10
340.0000624757
 20
170.3177912743
 10
340.0118552492
 20
170.3219594183
  0
LINE
  5
44F
330
24F
100
AcDbEntity
  8
ALL_ASSEM_MEMBER
  6
Continuous
 62
     0
100
AcDbLine
 10
340.0917267954
 20
264.4426773027
 30
0.0
 11
340.0354139976
 21
264.5665591374
 31
0.0
  0
LINE
  5
450
330
24F
100
AcDbEntity
  8
ALL_ASSEM_MEMBER
  6
Continuous
 62
     0
100
AcDbLine
 10
244.5871639747
 20
264.3074879048
 30
0.0
 11
379.5871639747
 21
264.3074879048
 31
0.0
  0
LINE
  5
451
330
24F
100
AcDbEntity
  8
ALL_ASSEM_MEMBER
  6
Continuous
 62
     0
100
AcDbLine
 10
244.6268693559
 20
264.4426773027
 30
0.0
 11
379.5474585936
 21
264.4426773027
 31
0.0
  0
LWPOLYLINE
  5
452
330
24F
100
AcDbEntity
  8
ALL_ASSEM_MEMBER
  6
Continuous
 62
     0
100
AcDbPolyline
 90
        8
 70
     0
 43
0.0
 10
340.0221762619
 20
264.4505568666
 10
340.0115873299
 20
264.4513646021
 10
340.0004741353
 20
264.4540918305
 10
339.989717551
 20
264.4586846815
 10
339.9801869937
 20
264.4648331365
 10
339.972350269
 20
264.4722430535
 10
339.96653633
 20
264.4806471896
 10
339.9631084588
 20
264.4893951958
  0
LWPOLYLINE
  5
453
330
24F
100
AcDbEntity
  8
ALL_ASSEM_MEMBER
  6
Continuous
 62
     0
100
AcDbPolyline
 90
        5
 70
     0
 43
0.0
 10
284.1533773254
 20
264.4505568666
 10
284.1433901491
 20
264.4513646021
 10
284.1342809283
 20
264.4540918305
 10
284.1268013005
 20
264.4586846815
 10
284.1236412868
 20
264.4618323426
  0
LINE
  5
454
330
24F
100
AcDbEntity
  8
ALL_ASSEM_MEMBER
  6
Continuous
 62
     0
100
AcDbLine
 10
325.3171638846
 20
272.6809132863
 30
0.0
 11
325.3871638759
 21
272.6109132776
 31
0.0
  0
LINE
  5
455
330
24F
100
AcDbEntity
  8
ALL_ASSEM_MEMBER
  6
Continuous
 62
     0
100
AcDbLine
 10
372.1912419628
 20
153.3602213137
 30
0.0
 11
372.1912419628
 21
149.3809133764
 31
0.0
  0
LINE
  5
456
330
24F
100
AcDbEntity
  8
ALL_ASSEM_MEMBER
  6
Continuous
 62
     0
100
AcDbLine
 10
372.2371639747
 20
153.3602213137
 30
0.0
 11
372.2371639747
 21
149.3809133764
 31
0.0
  0
LINE
  5
457
330
24F
100
AcDbEntity
  8
ALL_ASSEM_MEMBER
  6
Continuous
 62
     0
100
AcDbLine
 10
374.8371639747
 20
147.8809133764
 30
0.0
 11
374.8371639747
 21
144.3809133764
 31
0.0
  0
LWPOLYLINE
  5
458
330
24F
100
AcDbEntity
  8
ALL_ASSEM_MEMBER
  6
Continuous
 62
     0
100
AcDbPolyline
 90
        4
 70
     0
 43
0.0
 10
379.5369424185
 20
170.3219594183
 10
379.5430890471
 20
170.3240436577
 10
379.5478048975
 20
170.3239904339
 10
379.5487513115
 20
170.323645985
  0
LWPOLYLINE
  5
459
330
24F
100
AcDbEntity
  8
ALL_ASSEM_MEMBER
  6
Continuous
 62
     0
100
AcDbPolyline
 90
        7
 70
     0
 43
0.0
 10
323.1485151614
 20
271.5809133764
 10
323.1044506063
 20
271.5748398553
 10
323.0625633671
 20
271.5560767157
 10
323.0261570893
 20
271.5250320252
 10
322.9981256815
 20
271.4832242231
 10
322.9813721577
 20
271.4338661206
 10
322.9777166555
 20
271.3809133764
  0
LWPOLYLINE
  5
45A
330
24F
100
AcDbEntity
  8
ALL_ASSEM_MEMBER
  6
Continuous
 62
     0
100
AcDbPolyline
 90
        7
 70
     0
 43
0.0
 10
298.1485151614
 20
271.5809133764
 10
298.1044506063
 20
271.5748398553
 10
298.0625633671
 20
271.5560767157
 10
298.0261570893
 20
271.5250320252
 10
297.9981256815
 20
271.4832242231
 10
297.9813721577
 20
271.4338661206
 10
297.9777166555
 20
271.3809133764
  0
LINE
  5
45B
330
24F
100
AcDbEntity
  8
ALL_ASSEM_MEMBER
  6
Continuous
 62
     0
100
AcDbLine
 10
249.125432318
 20
271.3809133764
 30
0.0
 11
285.953441202
 21
271.3809133764
 31
0.0
  0
LINE
  5
45C
330
24F
100
AcDbEntity
  8
ALL_ASSEM_MEMBER
  6
Continuous
 62
     0
100
AcDbLine
 10
286.0458291552
 20
271.3809133764
 30
0.0
 11
338.1284987942
 21
271.3809133764
 31
0.0
  0
LINE
  5
45D
330
24F
100
AcDbEntity
  8
ALL_ASSEM_MEMBER
  6
Continuous
 62
     0
100
AcDbLine
 10
338.2208867475
 20
271.3809133764
 30
0.0
 11
375.0488956315
 21
271.3809133764
 31
0.0
  0
LINE
  5
45E
330
24F
100
AcDbEntity
  8
ALL_ASSEM_MEMBER
  6
Continuous
 62
     0
100
AcDbLine
 10
301.025812788
 20
271.5809133764
 30
0.0
 11
298.1485151614
 21
271.5809133764
 31
0.0
  0
LINE
  5
45F
330
24F
100
AcDbEntity
  8
ALL_ASSEM_MEMBER
  6
Continuous
 62
     0
100
AcDbLine
 10
323.1485151614
 20
271.5809133764
 30
0.0
 11
326.025812788
 21
271.5809133764
 31
0.0
  0
LINE
  5
460
330
24F
100
AcDbEntity
  8
ALL_ASSEM_MEMBER
  6
Continuous
 62
     0
100
AcDbLine
 10
298.7871639747
 20
272.6109133764
 30
0.0
 11
300.3871639747
 21
272.6109133764
 31
0.0
  0
LINE
  5
461
330
24F
100
AcDbEntity
  8
ALL_ASSEM_MEMBER
  6
Continuous
 62
     0
100
AcDbLine
 10
323.7871639747
 20
272.6109133764
 30
0.0
 11
325.3871639747
 21
272.6109133764
 31
0.0
  0
LINE
  5
462
330
24F
100
AcDbEntity
  8
ALL_ASSEM_MEMBER
  6
Continuous
 62
     0
100
AcDbLine
 10
298.8571639747
 20
272.6809133764
 30
0.0
 11
300.3171639747
 21
272.6809133764
 31
0.0
  0
LINE
  5
463
330
24F
100
AcDbEntity
  8
ALL_ASSEM_MEMBER
  6
Continuous
 62
     0
100
AcDbLine
 10
323.8571639747
 20
272.6809133764
 30
0.0
 11
325.3171639747
 21
272.6809133764
 31
0.0
  0
LINE
  5
464
330
24F
100
AcDbEntity
  8
ALL_ASSEM_MEMBER
  6
Continuous
 62
     0
100
AcDbLine
 10
379.51394067
 20
170.4326435332
 30
0.0
 11
379.51394067
 21
264.3074879048
 31
0.0
  0
LINE
  5
465
330
24F
100
AcDbEntity
  8
ALL_ASSEM_MEMBER
  6
Continuous
 62
     0
100
AcDbLine
 10
379.5871639747
 20
170.4326435332
 30
0.0
 11
379.5871639747
 21
264.3074879048
 31
0.0
  0
LWPOLYLINE
  5
466
330
24F
100
AcDbEntity
  8
ALL_ASSEM_MEMBER
  6
Continuous
 62
     0
100
AcDbPolyline
 90
        3
 70
     0
 43
0.0
 10
379.552474583
 20
170.3175767706
 10
379.5523099983
 20
170.3111720006
 10
379.5505747633
 20
170.303002019
  0
LWPOLYLINE
  5
467
330
24F
100
AcDbEntity
  8
ALL_ASSEM_MEMBER
  6
Continuous
 62
     0
100
AcDbPolyline
 90
        4
 70
     0
 43
0.0
 10
379.51394067
 20
170.4326435332
 10
379.5123077012
 20
170.3987414658
 10
379.5074389636
 20
170.3654657368
 10
379.4994244069
 20
170.3334311131
  0
LINE
  5
468
330
24F
100
AcDbEntity
  8
ALL_ASSEM_MEMBER
  6
Continuous
 62
     0
100
AcDbLine
 10
379.529721844
 20
170.3177912743
 30
0.0
 11
379.5369424185
 21
170.3219594183
 31
0.0
  0
LWPOLYLINE
  5
469
330
24F
100
AcDbEntity
  8
ALL_ASSEM_MEMBER
  6
Continuous
 62
     0
100
AcDbPolyline
 90
        3
 70
     0
 43
0.0
 10
244.6529351006
 20
264.4515658691
 10
244.6478117596
 20
264.4505568666
 10
244.6442101713
 20
264.4514096859
  0
LWPOLYLINE
  5
46A
330
24F
100
AcDbEntity
  8
ALL_ASSEM_MEMBER
  6
Continuous
 62
     0
100
AcDbPolyline
 90
        4
 70
     0
 43
0.0
 10
379.51394067
 20
264.3074879048
 10
379.5107445366
 20
264.3548120748
 10
379.501271709
 20
264.400424997
 10
379.4858647258
 20
264.4426773027
  0
LINE
  5
46B
330
24F
100
AcDbEntity
  8
ALL_ASSEM_MEMBER
  6
Continuous
 62
     0
100
AcDbLine
 10
379.4994244069
 20
170.3334311131
 30
0.0
 11
379.4480295186
 21
170.165319968
 31
0.0
  0
LWPOLYLINE
  5
46C
330
24F
100
AcDbEntity
  8
ALL_ASSEM_MEMBER
  6
Continuous
 62
     0
100
AcDbPolyline
 90
        4
 70
     0
 43
0.0
 10
379.5505747633
 20
170.303002019
 10
379.5476209618
 20
170.2935909011
 10
379.543786668
 20
170.2832724448
 10
379.5394207837
 20
170.2725107794
  0
LWPOLYLINE
  5
46D
330
24F
100
AcDbEntity
  8
ALL_ASSEM_MEMBER
  6
Continuous
 62
     0
100
AcDbPolyline
 90
        4
 70
     0
 43
0.0
 10
372.1994536013
 20
153.3999062818
 10
372.1948975165
 20
153.3870121267
 10
372.1921565947
 20
153.3737153801
 10
372.1912419628
 20
153.3602213137
  0
LWPOLYLINE
  5
46E
330
24F
100
AcDbEntity
  8
ALL_ASSEM_MEMBER
  6
Continuous
 62
     0
100
AcDbPolyline
 90
        3
 70
     0
 43
0.0
 10
379.5134700528
 20
170.3034671412
 10
379.5217499086
 20
170.3115937261
 10
379.529721844
 20
170.3177912743
  0
LWPOLYLINE
  5
46F
330
24F
100
AcDbEntity
  8
ALL_ASSEM_MEMBER
  6
Continuous
 62
     0
100
AcDbPolyline
 90
        6
 70
     0
 43
0.0
 10
379.5220360307
 20
264.4513646021
 10
379.515428821
 20
264.4540918305
 10
379.5076963414
 20
264.4586846815
 10
379.4995570206
 20
264.4648331365
 10
379.4915616191
 20
264.4722430535
 10
379.4841735527
 20
264.4806471896
  0
LWPOLYLINE
  5
470
330
24F
100
AcDbEntity
  8
ALL_ASSEM_MEMBER
  6
Continuous
 62
     0
100
AcDbPolyline
 90
        3
 70
     0
 43
0.0
 10
379.4934987718
 20
170.2725107794
 10
379.4702292729
 20
170.2172123074
 10
379.4480295186
 20
170.165319968
  0
LINE
  5
471
330
24F
100
AcDbEntity
  8
ALL_ASSEM_MEMBER
  6
Continuous
 62
     0
100
AcDbLine
 10
379.5160897205
 20
170.2170670785
 30
0.0
 11
379.5394207837
 21
170.2725107794
 31
0.0
  0
LINE
  5
472
330
24F
100
AcDbEntity
  8
ALL_ASSEM_MEMBER
  6
Continuous
 62
     0
100
AcDbLine
 10
379.4939515305
 20
170.165319968
 30
0.0
 11
379.5160897205
 21
170.2170670785
 31
0.0
  0
LINE
  5
473
330
24F
100
AcDbEntity
  8
ALL_ASSEM_MEMBER
  6
Continuous
 62
     0
100
AcDbLine
 10
372.1994536013
 20
153.3999062818
 30
0.0
 11
379.4480295186
 21
170.165319968
 31
0.0
  0
LINE
  5
474
330
24F
100
AcDbEntity
  8
ALL_ASSEM_MEMBER
  6
Continuous
 62
     0
100
AcDbLine
 10
379.5666348785
 20
170.3334311131
 30
0.0
 11
379.5401579881
 21
170.2721920468
 31
0.0
  0
LINE
  5
475
330
24F
100
AcDbEntity
  8
ALL_ASSEM_MEMBER
  6
Continuous
 62
     0
100
AcDbLine
 10
372.2453756132
 20
153.3999062818
 30
0.0
 11
379.4939515305
 21
170.165319968
 31
0.0
  0
LWPOLYLINE
  5
476
330
24F
100
AcDbEntity
  8
ALL_ASSEM_MEMBER
  6
Continuous
 62
     0
100
AcDbPolyline
 90
        4
 70
     0
 43
0.0
 10
379.4934987718
 20
170.2725107794
 10
379.4989299743
 20
170.2835280276
 10
379.5056716458
 20
170.2939313702
 10
379.5134700528
 20
170.3034671412
  0
LINE
  5
477
330
24F
100
AcDbEntity
  8
ALL_ASSEM_MEMBER
  6
Continuous
 62
     0
100
AcDbLine
 10
379.4841735527
 20
264.4806471896
 30
0.0
 11
379.4780351655
 21
264.4893951958
 31
0.0
  0
LINE
  5
478
330
24F
100
AcDbEntity
  8
ALL_ASSEM_MEMBER
  6
Continuous
 62
     0
100
AcDbLine
 10
375.0488956315
 20
271.3809133764
 30
0.0
 11
379.429551928
 21
264.5665591374
 31
0.0
  0
LINE
  5
479
330
24F
100
AcDbEntity
  8
ALL_ASSEM_MEMBER
  6
Continuous
 62
     0
100
AcDbLine
 10
379.5474585936
 20
264.4426773027
 30
0.0
 11
379.5294473904
 21
264.4706947299
 31
0.0
  0
LINE
  5
47A
330
24F
100
AcDbEntity
  8
ALL_ASSEM_MEMBER
  6
Continuous
 62
     0
100
AcDbLine
 10
375.0871639747
 20
271.3809133764
 30
0.0
 11
379.4678202712
 21
264.5665591374
 31
0.0
  0
LWPOLYLINE
  5
47B
330
24F
100
AcDbEntity
  8
ALL_ASSEM_MEMBER
  6
Continuous
 62
     0
100
AcDbPolyline
 90
        3
 70
     0
 43
0.0
 10
379.429551928
 20
264.5665591374
 10
379.4528655095
 20
264.5298229576
 10
379.4780351655
 20
264.4893951958
  0
LWPOLYLINE
  5
47C
330
24F
100
AcDbEntity
  8
ALL_ASSEM_MEMBER
  6
Continuous
 62
     0
100
AcDbPolyline
 90
        3
 70
     0
 43
0.0
 10
379.5163035087
 20
264.4893951958
 10
379.4912362805
 20
264.5296598003
 10
379.4678202712
 20
264.5665591374
  0
LINE
  5
47D
330
24F
100
AcDbEntity
  8
ALL_ASSEM_MEMBER
  6
Continuous
 62
     0
100
AcDbLine
 10
379.5163035087
 20
264.4893951958
 30
0.0
 11
379.5215067929
 21
264.4807330878
 31
0.0
  0
LWPOLYLINE
  5
47E
330
24F
100
AcDbEntity
  8
ALL_ASSEM_MEMBER
  6
Continuous
 62
     0
100
AcDbPolyline
 90
        5
 70
     0
 43
0.0
 10
379.5215067929
 20
264.4807330878
 10
379.5260629286
 20
264.4724904317
 10
379.5295570575
 20
264.4650878084
 10
379.5315858977
 20
264.4589449614
 10
379.5318768683
 20
264.4543864814
  0
LINE
  5
47F
330
24F
100
AcDbEntity
  8
ALL_ASSEM_MEMBER
  6
Continuous
 62
     0
100
AcDbLine
 10
379.4858647258
 20
264.4426773027
 30
0.0
 11
379.429551928
 21
264.5665591374
 31
0.0
  0
LINE
  5
481
330
24F
100
AcDbEntity
  8
ALL_ASSEM_MEMBER
  6
Continuous
 62
     0
100
AcDbLine
 10
42.5604324814
 20
376.0504907906
 30
0.0
 11
42.5604324814
 21
320.1316598702001
 31
0.0
  0
LINE
  5
482
330
24F
100
AcDbEntity
  8
ALL_ASSEM_MEMBER
  6
Continuous
 62
     7
100
AcDbLine
 10
47.3104324814
 20
285.6410753304
 30
0.0
 11
47.3104324814
 21
410.5410753304
 31
0.0
  0
LINE
  5
483
330
24F
100
AcDbEntity
  8
ALL_ASSEM_MEMBER
  6
Continuous
 62
     7
100
AcDbLine
 10
47.5104324814
 20
285.6410753304
 30
0.0
 11
47.5104324814
 21
410.5410753304
 31
0.0
  0
LINE
  5
484
330
24F
100
AcDbEntity
  8
ALL_ASSEM_MEMBER
  6
Continuous
 62
     0
100
AcDbLine
 10
82.10101702119997
 20
415.5910753304
 30
0.0
 11
77.3510170212
 21
410.8410753304
 31
0.0
  0
LINE
  5
485
330
24F
100
AcDbEntity
  8
ALL_ASSEM_MEMBER
  6
Continuous
 62
     0
100
AcDbLine
 10
47.3104324814
 20
380.8004907906
 30
0.0
 11
42.5604324814
 21
376.0504907906
 31
0.0
  0
LINE
  5
486
330
24F
100
AcDbEntity
  8
ALL_ASSEM_MEMBER
  6
Continuous
 62
     0
100
AcDbLine
 10
42.56043248140001
 20
320.1316598702001
 30
0.0
 11
47.31043248139999
 21
315.3816598702
 31
0.0
  0
LINE
  5
487
330
24F
100
AcDbEntity
  8
ALL_ASSEM_MEMBER
  6
Continuous
 62
     0
100
AcDbLine
 10
77.3510170212
 20
285.3410753304
 30
0.0
 11
82.10101702120004
 21
280.5910753304
 31
0.0
  0
LINE
  5
48C
330
24F
100
AcDbEntity
  8
ALL_ASSEM_MEMBER
  6
Continuous
 62
     0
100
AcDbLine
 10
82.10101702120005
 20
280.5910753304
 30
0.0
 11
110.0454324814
 21
280.5910753304
 31
0.0
  0
LINE
  5
48E
330
24F
100
AcDbEntity
  8
ALL_ASSEM_MEMBER
  6
Continuous
 62
     0
100
AcDbLine
 10
110.3604324814
 20
280.5910753304
 30
0.0
 11
138.0198479416004
 21
280.5910753304
 31
0.0
  0
LINE
  5
48F
330
24F
100
AcDbEntity
  8
ALL_ASSEM_MEMBER
  6
Continuous
 62
     0
100
AcDbLine
 10
110.1104324814
 20
280.8208128832
 30
0.0
 11
110.0454324814
 21
280.8213982428
 31
0.0
  0
LINE
  5
490
330
24F
100
AcDbEntity
  8
ALL_ASSEM_MEMBER
  6
Continuous
 62
     7
100
AcDbLine
 10
67.2366654241
 20
339.3269138087
 30
0.0
 11
67.2366654241
 21
340.0774691587
 31
0.0
  0
LINE
  5
491
330
24F
100
AcDbEntity
  8
ALL_ASSEM_MEMBER
  6
Continuous
 62
     7
100
AcDbLine
 10
67.2366654241
 20
356.1046815021
 30
0.0
 11
67.2366654241
 21
356.855236852
 31
0.0
  0
LINE
  5
492
330
24F
100
AcDbEntity
  8
ALL_ASSEM_MEMBER
  6
Continuous
 62
     7
100
AcDbLine
 10
68.5366654241
 20
356.855236852
 30
0.0
 11
68.5366654241
 21
356.1046815021
 31
0.0
  0
LINE
  5
493
330
24F
100
AcDbEntity
  8
ALL_ASSEM_MEMBER
  6
Continuous
 62
     7
100
AcDbLine
 10
68.5366654241
 20
340.0774691587
 30
0.0
 11
68.5366654241
 21
339.3269138087
 31
0.0
  0
LINE
  5
499
330
24F
100
AcDbEntity
  8
ALL_ASSEM_MEMBER
  6
Continuous
 62
     7
100
AcDbLine
 10
172.5104324814
 20
285.3410753304
 30
0.0
 11
47.6104324814
 21
285.3410753304
 31
0.0
  0
LINE
  5
49A
330
24F
100
AcDbEntity
  8
ALL_ASSEM_MEMBER
  6
Continuous
 62
     7
100
AcDbLine
 10
172.5104324814
 20
285.5410753304
 30
0.0
 11
47.6104324814
 21
285.5410753304
 31
0.0
  0
LINE
  5
49B
330
24F
100
AcDbEntity
  8
ALL_ASSEM_MEMBER
  6
Continuous
 62
     0
100
AcDbLine
 10
110.2872091767
 20
280.6642986351
 30
0.0
 11
110.1453375621
 21
280.8061702497
 31
0.0
  0
LINE
  5
49C
330
24F
100
AcDbEntity
  8
ALL_ASSEM_MEMBER
  6
Continuous
 62
     7
100
AcDbLine
 10
73.6572391524
 20
323.8262776356
 30
0.0
 11
73.6572391524
 21
324.5768329855
 31
0.0
  0
LINE
  5
49D
330
24F
100
AcDbEntity
  8
ALL_ASSEM_MEMBER
  6
Continuous
 62
     7
100
AcDbLine
 10
73.6572391524
 20
371.6053176752
 30
0.0
 11
73.6572391524
 21
372.3558730252
 31
0.0
  0
LINE
  5
49E
330
24F
100
AcDbEntity
  8
ALL_ASSEM_MEMBER
  6
Continuous
 62
     7
100
AcDbLine
 10
74.9572391524
 20
372.3558730252
 30
0.0
 11
74.9572391524
 21
371.6053176752
 31
0.0
  0
LINE
  5
49F
330
24F
100
AcDbEntity
  8
ALL_ASSEM_MEMBER
  6
Continuous
 62
     7
100
AcDbLine
 10
74.9572391524
 20
324.5768329855
 30
0.0
 11
74.9572391524
 21
323.8262776356
 31
0.0
  0
LINE
  5
4A1
330
24F
100
AcDbEntity
  8
ALL_ASSEM_MEMBER
  6
Continuous
 62
     7
100
AcDbLine
 10
85.5209124616
 20
384.2195463344
 30
0.0
 11
86.1709124616
 21
384.5948240093
 31
0.0
  0
LINE
  5
4A2
330
24F
100
AcDbEntity
  8
ALL_ASSEM_MEMBER
  6
Continuous
 62
     7
100
AcDbLine
 10
86.8209124616
 20
383.4689909844
 30
0.0
 11
86.1709124616
 21
383.0937133094
 31
0.0
  0
LINE
  5
4A3
330
24F
100
AcDbEntity
  8
ALL_ASSEM_MEMBER
  6
Continuous
 62
     7
100
AcDbLine
 10
101.0215486347
 20
390.6401200627
 30
0.0
 11
101.6715486347
 21
391.0153977377
 31
0.0
  0
LINE
  5
4A4
330
24F
100
AcDbEntity
  8
ALL_ASSEM_MEMBER
  6
Continuous
 62
     7
100
AcDbLine
 10
86.1709124616
 20
311.5873266514
 30
0.0
 11
85.5209124616
 21
311.9626043264
 31
0.0
  0
LINE
  5
4A5
330
24F
100
AcDbEntity
  8
ALL_ASSEM_MEMBER
  6
Continuous
 62
     7
100
AcDbLine
 10
86.1709124616
 20
313.0884373513
 30
0.0
 11
86.8209124616
 21
312.7131596763
 31
0.0
  0
LINE
  5
4A6
330
24F
100
AcDbEntity
  8
ALL_ASSEM_MEMBER
  6
Continuous
 62
     7
100
AcDbLine
 10
101.6715486347
 20
305.1667529231
 30
0.0
 11
101.0215486347
 21
305.5420305981
 31
0.0
  0
LINE
  5
4A7
330
24F
100
AcDbEntity
  8
ALL_ASSEM_MEMBER
  6
Continuous
 62
     7
100
AcDbLine
 10
102.3215486347
 20
389.8895647127
 30
0.0
 11
101.6715486347
 21
389.5142870378
 31
0.0
  0
LINE
  5
4A8
330
24F
100
AcDbEntity
  8
ALL_ASSEM_MEMBER
  6
Continuous
 62
     7
100
AcDbLine
 10
73.6572391524
 20
372.3558730252
 30
0.0
 11
74.3072391524
 21
372.7311507002
 31
0.0
  0
LINE
  5
4A9
330
24F
100
AcDbEntity
  8
ALL_ASSEM_MEMBER
  6
Continuous
 62
     7
100
AcDbLine
 10
74.9572391524
 20
371.6053176752
 30
0.0
 11
74.3072391524
 21
371.2300400003
 31
0.0
  0
LINE
  5
4AA
330
24F
100
AcDbEntity
  8
ALL_ASSEM_MEMBER
  6
Continuous
 62
     7
100
AcDbLine
 10
101.6715486347
 20
306.667863623
 30
0.0
 11
102.3215486347
 21
306.292585948
 31
0.0
  0
LINE
  5
4AB
330
24F
100
AcDbEntity
  8
ALL_ASSEM_MEMBER
  6
Continuous
 62
     7
100
AcDbLine
 10
74.3072391524
 20
323.4509999606
 30
0.0
 11
73.6572391524
 21
323.8262776356
 31
0.0
  0
LINE
  5
4AC
330
24F
100
AcDbEntity
  8
ALL_ASSEM_MEMBER
  6
Continuous
 62
     7
100
AcDbLine
 10
74.3072391524
 20
324.9521106605
 30
0.0
 11
74.9572391524
 21
324.5768329855
 31
0.0
  0
LINE
  5
4AD
330
24F
100
AcDbEntity
  8
ALL_ASSEM_MEMBER
  6
Continuous
 62
     7
100
AcDbLine
 10
85.5209124616
 20
311.9626043264
 30
0.0
 11
85.5209124616
 21
312.7131596763
 31
0.0
  0
LINE
  5
4AE
330
24F
100
AcDbEntity
  8
ALL_ASSEM_MEMBER
  6
Continuous
 62
     7
100
AcDbLine
 10
85.5209124616
 20
383.4689909844
 30
0.0
 11
85.5209124616
 21
384.2195463344
 31
0.0
  0
LINE
  5
4AF
330
24F
100
AcDbEntity
  8
ALL_ASSEM_MEMBER
  6
Continuous
 62
     7
100
AcDbLine
 10
86.8209124616
 20
384.2195463344
 30
0.0
 11
86.8209124616
 21
383.4689909844
 31
0.0
  0
LINE
  5
4B0
330
24F
100
AcDbEntity
  8
ALL_ASSEM_MEMBER
  6
Continuous
 62
     7
100
AcDbLine
 10
86.8209124616
 20
312.7131596763
 30
0.0
 11
86.8209124616
 21
311.9626043264
 31
0.0
  0
LINE
  5
4B1
330
24F
100
AcDbEntity
  8
ALL_ASSEM_MEMBER
  6
Continuous
 62
     7
100
AcDbLine
 10
117.7993163281
 20
390.6401200627
 30
0.0
 11
118.4493163281
 21
391.0153977377
 31
0.0
  0
LINE
  5
4B2
330
24F
100
AcDbEntity
  8
ALL_ASSEM_MEMBER
  6
Continuous
 62
     7
100
AcDbLine
 10
119.0993163281
 20
389.8895647127
 30
0.0
 11
118.4493163281
 21
389.5142870378
 31
0.0
  0
LINE
  5
4B3
330
24F
100
AcDbEntity
  8
ALL_ASSEM_MEMBER
  6
Continuous
 62
     7
100
AcDbLine
 10
67.2366654241
 20
356.855236852
 30
0.0
 11
67.8866654241
 21
357.230514527
 31
0.0
  0
LINE
  5
4B4
330
24F
100
AcDbEntity
  8
ALL_ASSEM_MEMBER
  6
Continuous
 62
     7
100
AcDbLine
 10
68.5366654241
 20
356.1046815021
 30
0.0
 11
67.8866654241
 21
355.7294038271
 31
0.0
  0
LINE
  5
4B5
330
24F
100
AcDbEntity
  8
ALL_ASSEM_MEMBER
  6
Continuous
 62
     7
100
AcDbLine
 10
118.4493163281
 20
305.1667529231
 30
0.0
 11
117.7993163281
 21
305.5420305981
 31
0.0
  0
LINE
  5
4B6
330
24F
100
AcDbEntity
  8
ALL_ASSEM_MEMBER
  6
Continuous
 62
     7
100
AcDbLine
 10
118.4493163281
 20
306.667863623
 30
0.0
 11
119.0993163281
 21
306.292585948
 31
0.0
  0
LINE
  5
4B7
330
24F
100
AcDbEntity
  8
ALL_ASSEM_MEMBER
  6
Continuous
 62
     7
100
AcDbLine
 10
67.8866654241
 20
338.9516361337
 30
0.0
 11
67.2366654241
 21
339.3269138087
 31
0.0
  0
LINE
  5
4B8
330
24F
100
AcDbEntity
  8
ALL_ASSEM_MEMBER
  6
Continuous
 62
     7
100
AcDbLine
 10
67.8866654241
 20
340.4527468336
 30
0.0
 11
68.5366654241
 21
340.0774691587
 31
0.0
  0
LINE
  5
4BC
330
24F
100
AcDbEntity
  8
ALL_ASSEM_MEMBER
  6
Continuous
 62
     7
100
AcDbLine
 10
133.2999525012
 20
384.2195463344
 30
0.0
 11
133.9499525012
 21
384.5948240093
 31
0.0
  0
LINE
  5
4BD
330
24F
100
AcDbEntity
  8
ALL_ASSEM_MEMBER
  6
Continuous
 62
     7
100
AcDbLine
 10
133.9499525012
 20
311.5873266514
 30
0.0
 11
133.2999525012
 21
311.9626043264
 31
0.0
  0
LINE
  5
4C2
330
24F
100
AcDbEntity
  8
ALL_ASSEM_MEMBER
  6
Continuous
 62
     9
100
AcDbLine
 10
47.8104530777
 20
410.3410443733
 30
0.0
 11
47.6104322364
 21
410.6410753304
 31
0.0
  0
LWPOLYLINE
  5
4C3
330
24F
100
AcDbEntity
  8
ALL_ASSEM_MEMBER
  6
Continuous
 62
     0
100
AcDbPolyline
 90
       16
 70
     0
 43
0.0
 10
82.0748708866
 20
415.4974101274
 10
82.0739864997
 20
415.50284133
 10
82.0752801083
 20
415.5095830014
 10
82.0788910638
 20
415.5173814085
 10
82.08481654
 20
415.5256612643
 10
82.0926742373
 20
415.5336331997
 10
82.102131163
 20
415.5408537742
 10
82.1128887402
 20
415.5470004028
 10
82.1243788138
 20
415.5517162532
 10
82.1361711184
 20
415.5548616184
 10
82.1480078022
 20
415.5563859387
 10
82.1593493904
 20
415.5562213539
 10
82.1692444147
 20
415.5544861189
 10
82.1770719334
 20
415.5515323175
 10
82.1826267134
 20
415.5476980237
 10
82.1857364305
 20
415.5433321393
  0
LINE
  5
4C4
330
24F
100
AcDbEntity
  8
ALL_ASSEM_MEMBER
  6
Continuous
 62
     7
100
AcDbLine
 10
101.0215486347
 20
305.5420305981
 30
0.0
 11
101.0215486347
 21
306.292585948
 31
0.0
  0
LINE
  5
4C5
330
24F
100
AcDbEntity
  8
ALL_ASSEM_MEMBER
  6
Continuous
 62
     7
100
AcDbLine
 10
101.0215486347
 20
389.8895647127
 30
0.0
 11
101.0215486347
 21
390.6401200627
 31
0.0
  0
LINE
  5
4C6
330
24F
100
AcDbEntity
  8
ALL_ASSEM_MEMBER
  6
Continuous
 62
     7
100
AcDbLine
 10
102.3215486347
 20
390.6401200627
 30
0.0
 11
102.3215486347
 21
389.8895647127
 31
0.0
  0
LINE
  5
4C7
330
24F
100
AcDbEntity
  8
ALL_ASSEM_MEMBER
  6
Continuous
 62
     7
100
AcDbLine
 10
102.3215486347
 20
306.292585948
 30
0.0
 11
102.3215486347
 21
305.5420305981
 31
0.0
  0
LINE
  5
4C8
330
24F
100
AcDbEntity
  8
ALL_ASSEM_MEMBER
  6
Continuous
 62
     7
100
AcDbLine
 10
134.5999525012
 20
383.4689909844
 30
0.0
 11
133.9499525012
 21
383.0937133094
 31
0.0
  0
LINE
  5
4C9
330
24F
100
AcDbEntity
  8
ALL_ASSEM_MEMBER
  6
Continuous
 62
     7
100
AcDbLine
 10
67.2366654241
 20
340.0774691587
 30
0.0
 11
67.8866654241
 21
340.4527468336
 31
0.0
  0
LINE
  5
4CA
330
24F
100
AcDbEntity
  8
ALL_ASSEM_MEMBER
  6
Continuous
 62
     7
100
AcDbLine
 10
68.5366654241
 20
339.3269138087
 30
0.0
 11
67.8866654241
 21
338.9516361337
 31
0.0
  0
LINE
  5
4CB
330
24F
100
AcDbEntity
  8
ALL_ASSEM_MEMBER
  6
Continuous
 62
     7
100
AcDbLine
 10
133.9499525012
 20
313.0884373513
 30
0.0
 11
134.5999525012
 21
312.7131596763
 31
0.0
  0
LINE
  5
4CC
330
24F
100
AcDbEntity
  8
ALL_ASSEM_MEMBER
  6
Continuous
 62
     7
100
AcDbLine
 10
67.8866654241
 20
355.7294038271
 30
0.0
 11
67.2366654241
 21
356.1046815021
 31
0.0
  0
LINE
  5
4CD
330
24F
100
AcDbEntity
  8
ALL_ASSEM_MEMBER
  6
Continuous
 62
     7
100
AcDbLine
 10
67.8866654241
 20
357.230514527
 30
0.0
 11
68.5366654241
 21
356.855236852
 31
0.0
  0
LWPOLYLINE
  5
4D0
330
24F
100
AcDbEntity
  8
ALL_ASSEM_MEMBER
  6
Continuous
 62
     0
100
AcDbPolyline
 90
       16
 70
     0
 43
0.0
 10
42.6081756725
 20
375.9657713813
 10
42.6037098764
 20
375.9689864655
 10
42.5998575142
 20
375.9746682665
 10
42.5968965388
 20
375.9827359042
 10
42.595231741
 20
375.9927805908
 10
42.5951509625
 20
376.0039738313
 10
42.5967323016
 20
376.0157666048
 10
42.5999927346
 20
376.0277196834
 10
42.6047828338
 20
376.0391790021
 10
42.6108971432
 20
376.0497415298
 10
42.6181890854
 20
376.0591891864
 10
42.6263251783
 20
376.0670925213
 10
42.6345490135
 20
376.0728623636
 10
42.6421725581
 20
376.0763086022
 10
42.6488116359
 20
376.0775251696
 10
42.6540976843
 20
376.0766369252
  0
LINE
  5
4D2
330
24F
100
AcDbEntity
  8
ALL_ASSEM_MEMBER
  6
Continuous
 62
     0
100
AcDbLine
 10
109.7605773080293
 20
415.5685542958967
 30
0.0
 11
109.7604324814
 21
415.5910753304
 31
0.0
  0
LINE
  5
4D3
330
24F
100
AcDbEntity
  8
ALL_ASSEM_MEMBER
  6
Continuous
 62
     0
100
AcDbLine
 10
110.0454324814
 20
280.5910753304
 30
0.0
 11
110.0454324814
 21
285.3410753304
 31
0.0
  0
LINE
  5
4D6
330
24F
100
AcDbEntity
  8
ALL_ASSEM_MEMBER
  6
Continuous
 62
     0
100
AcDbLine
 10
110.0754324814
 20
415.5910753304
 30
0.0
 11
110.0754324814
 21
410.8410753304
 31
0.0
  0
LINE
  5
4D8
330
24F
100
AcDbEntity
  8
ALL_ASSEM_MEMBER
  6
Continuous
 62
     0
100
AcDbLine
 10
110.3604324814
 20
280.5910753304
 30
0.0
 11
110.3602876547707
 21
280.6135963649032
 31
0.0
  0
LINE
  5
4DA
330
24F
100
AcDbEntity
  8
02___PRT_ALL_AXES
  6
CENTER
 62
     2
100
AcDbLine
 10
118.4493163281
 20
390.2648423877
 30
0.0
 11
117.7957637493
 21
386.9792116984
 31
0.0
  0
LINE
  5
4DB
330
24F
100
AcDbEntity
  8
02___PRT_ALL_AXES
  6
CENTER
 62
     2
100
AcDbLine
 10
101.6715486347
 20
305.917308273
 30
0.0
 11
101.0179960559
 21
302.6316775837
 31
0.0
  0
LINE
  5
4DC
330
24F
100
AcDbEntity
  8
02___PRT_ALL_AXES
  6
CENTER
 62
     2
100
AcDbLine
 10
101.6715486347
 20
305.917308273
 30
0.0
 11
102.3251012135
 21
309.2029389624
 31
0.0
  0
LINE
  5
4DD
330
24F
100
AcDbEntity
  8
02___PRT_ALL_AXES
  6
CENTER
 62
     2
100
AcDbLine
 10
118.4493163281
 20
390.2648423877
 30
0.0
 11
119.1028689068
 21
393.5504730771
 31
0.0
  0
LINE
  5
4DE
330
24F
100
AcDbEntity
  8
ALL_ASSEM_MEMBER
  6
Continuous
 62
     0
100
AcDbLine
 10
84.0035879105
 20
285.3410753304
 30
0.0
 11
82.07487088663193
 21
280.68474053349
 31
0.0
  0
LINE
  5
4DF
330
24F
100
AcDbEntity
  8
ALL_ASSEM_MEMBER
  6
Continuous
 62
     0
100
AcDbLine
 10
135.9873899883
 20
410.8410753304
 30
0.0
 11
137.9351285324506
 21
415.5433321396516
 31
0.0
  0
LINE
  5
4E0
330
24F
100
AcDbEntity
  8
ALL_ASSEM_MEMBER
  6
Continuous
 62
     0
100
AcDbLine
 10
82.1857364305
 20
280.6388185214
 30
0.0
 11
84.1334749745
 21
285.3410753304
 31
0.0
  0
LINE
  5
4E1
330
24F
100
AcDbEntity
  8
ALL_ASSEM_MEMBER
  6
Continuous
 62
     0
100
AcDbLine
 10
136.1172770523
 20
410.8410753304
 30
0.0
 11
138.0459940760321
 21
415.4974101269816
 31
0.0
  0
LINE
  5
4E2
330
24F
100
AcDbEntity
  8
02___PRT_ALL_AXES
  6
CENTER
 62
     2
100
AcDbLine
 10
133.9499525012
 20
383.8442686594
 30
0.0
 11
132.0887922206
 21
381.0588454582
 31
0.0
  0
LINE
  5
4E3
330
24F
100
AcDbEntity
  8
02___PRT_ALL_AXES
  6
CENTER
 62
     2
100
AcDbLine
 10
86.1709124616
 20
312.3378820014
 30
0.0
 11
84.3097521809
 21
309.5524588002
 31
0.0
  0
LINE
  5
4E4
330
24F
100
AcDbEntity
  8
02___PRT_ALL_AXES
  6
CENTER
 62
     2
100
AcDbLine
 10
86.1709124616
 20
312.3378820014
 30
0.0
 11
88.0320727422
 21
315.1233052026
 31
0.0
  0
LINE
  5
4E5
330
24F
100
AcDbEntity
  8
02___PRT_ALL_AXES
  6
CENTER
 62
     2
100
AcDbLine
 10
133.9499525012
 20
383.8442686594
 30
0.0
 11
135.8111127819
 21
386.6296918606
 31
0.0
  0
LWPOLYLINE
  5
4E6
330
24F
100
AcDbEntity
  8
ALL_ASSEM_MEMBER
  6
Continuous
 62
     0
100
AcDbPolyline
 90
       16
 70
     0
 43
0.0
 10
42.6540976843
 20
320.1055137356
 10
42.6486664818
 20
320.1046293487
 10
42.6419248104
 20
320.1059229572
 10
42.6341264033
 20
320.1095339128
 10
42.6258465475
 20
320.115459389
 10
42.6178746121
 20
320.1233170863
 10
42.6106540376
 20
320.132774012
 10
42.604507409
 20
320.1435315892
 10
42.5997915586
 20
320.1550216628
 10
42.5966461933
 20
320.1668139674
 10
42.5951218731
 20
320.1786506512
 10
42.5952864578
 20
320.1899922393
 10
42.5970216929
 20
320.1998872637
 10
42.5999754943
 20
320.2077147824
 10
42.6038097881
 20
320.2132695624
 10
42.6081756725
 20
320.2163792795
  0
LINE
  5
4E8
330
24F
100
AcDbEntity
  8
02___PRT_ALL_AXES
  6
CENTER
 62
     2
100
AcDbLine
 10
86.1709124616
 20
383.8442686594
 30
0.0
 11
88.0320727422
 21
381.0588454582
 31
0.0
  0
LINE
  5
4E9
330
24F
100
AcDbEntity
  8
02___PRT_ALL_AXES
  6
CENTER
 62
     2
100
AcDbLine
 10
133.9499525012
 20
312.3378820014
 30
0.0
 11
135.8111127819
 21
309.5524588002
 31
0.0
  0
LINE
  5
4EA
330
24F
100
AcDbEntity
  8
02___PRT_ALL_AXES
  6
CENTER
 62
     2
100
AcDbLine
 10
133.9499525012
 20
312.3378820014
 30
0.0
 11
132.0887922206
 21
315.1233052026
 31
0.0
  0
LINE
  5
4EB
330
24F
100
AcDbEntity
  8
02___PRT_ALL_AXES
  6
CENTER
 62
     2
100
AcDbLine
 10
86.1709124616
 20
383.8442686594
 30
0.0
 11
84.3097521809
 21
386.6296918606
 31
0.0
  0
LINE
  5
4EC
330
24F
100
AcDbEntity
  8
ALL_ASSEM_MEMBER
  6
Continuous
 62
     0
100
AcDbLine
 10
135.9873899883
 20
285.3410753304
 30
0.0
 11
137.9351285323
 21
280.6388185214
 31
0.0
  0
LINE
  5
4ED
330
24F
100
AcDbEntity
  8
ALL_ASSEM_MEMBER
  6
Continuous
 62
     0
100
AcDbLine
 10
84.0035879105
 20
410.8410753304
 30
0.0
 11
82.0748708866
 21
415.4974101274
 31
0.0
  0
LINE
  5
4EE
330
24F
100
AcDbEntity
  8
ALL_ASSEM_MEMBER
  6
Continuous
 62
     0
100
AcDbLine
 10
138.0459940762
 20
280.6847405333
 30
0.0
 11
136.1172770523
 21
285.3410753304
 31
0.0
  0
LINE
  5
4EF
330
24F
100
AcDbEntity
  8
ALL_ASSEM_MEMBER
  6
Continuous
 62
     0
100
AcDbLine
 10
84.1334749745
 20
410.8410753304
 30
0.0
 11
82.1857364305
 21
415.5433321393
 31
0.0
  0
LINE
  5
4F0
330
24F
100
AcDbEntity
  8
02___PRT_ALL_AXES
  6
CENTER
 62
     2
100
AcDbLine
 10
101.6715486347
 20
390.2648423877
 30
0.0
 11
102.3251012135
 21
386.9792116984
 31
0.0
  0
LINE
  5
4F1
330
24F
100
AcDbEntity
  8
02___PRT_ALL_AXES
  6
CENTER
 62
     2
100
AcDbLine
 10
118.4493163281
 20
305.917308273
 30
0.0
 11
119.1028689068
 21
302.6316775837
 31
0.0
  0
LINE
  5
4F2
330
24F
100
AcDbEntity
  8
02___PRT_ALL_AXES
  6
CENTER
 62
     2
100
AcDbLine
 10
118.4493163281
 20
305.917308273
 30
0.0
 11
117.7957637493
 21
309.2029389624
 31
0.0
  0
LINE
  5
4F3
330
24F
100
AcDbEntity
  8
02___PRT_ALL_AXES
  6
CENTER
 62
     2
100
AcDbLine
 10
101.6715486347
 20
390.2648423877
 30
0.0
 11
101.0179960559
 21
393.5504730771
 31
0.0
  0
LINE
  5
4F4
330
24F
100
AcDbEntity
  8
ALL_ASSEM_MEMBER
  6
Continuous
 62
     7
100
AcDbLine
 10
117.7993163281
 20
305.5420305981
 30
0.0
 11
117.7993163281
 21
306.292585948
 31
0.0
  0
LINE
  5
4F5
330
24F
100
AcDbEntity
  8
ALL_ASSEM_MEMBER
  6
Continuous
 62
     7
100
AcDbLine
 10
117.7993163281
 20
389.8895647127
 30
0.0
 11
117.7993163281
 21
390.6401200627
 31
0.0
  0
LINE
  5
4F6
330
24F
100
AcDbEntity
  8
ALL_ASSEM_MEMBER
  6
Continuous
 62
     7
100
AcDbLine
 10
119.0993163281
 20
390.6401200627
 30
0.0
 11
119.0993163281
 21
389.8895647127
 31
0.0
  0
LINE
  5
4F7
330
24F
100
AcDbEntity
  8
ALL_ASSEM_MEMBER
  6
Continuous
 62
     7
100
AcDbLine
 10
119.0993163281
 20
306.292585948
 30
0.0
 11
119.0993163281
 21
305.5420305981
 31
0.0
  0
LINE
  5
4F8
330
24F
100
AcDbEntity
  8
02___PRT_ALL_AXES
  6
CENTER
 62
     2
100
AcDbLine
 10
145.8136258104
 20
371.9805953502
 30
0.0
 11
143.0282026092
 21
370.1194350696
 31
0.0
  0
LINE
  5
4F9
330
24F
100
AcDbEntity
  8
02___PRT_ALL_AXES
  6
CENTER
 62
     2
100
AcDbLine
 10
74.3072391524
 20
324.2015553105
 30
0.0
 11
71.5218159512
 21
322.3403950299
 31
0.0
  0
LINE
  5
4FA
330
24F
100
AcDbEntity
  8
02___PRT_ALL_AXES
  6
CENTER
 62
     2
100
AcDbLine
 10
74.3072391524
 20
324.2015553105
 30
0.0
 11
77.0926623536
 21
326.0627155912
 31
0.0
  0
LINE
  5
4FB
330
24F
100
AcDbEntity
  8
02___PRT_ALL_AXES
  6
CENTER
 62
     2
100
AcDbLine
 10
145.8136258104
 20
371.9805953502
 30
0.0
 11
148.5990490116
 21
373.8417556308
 31
0.0
  0
LINE
  5
4FC
330
24F
100
AcDbEntity
  8
ALL_ASSEM_MEMBER
  6
Continuous
 62
     7
100
AcDbLine
 10
145.1636258104
 20
372.3558730252
 30
0.0
 11
145.8136258104
 21
372.7311507002
 31
0.0
  0
LINE
  5
4FD
330
24F
100
AcDbEntity
  8
ALL_ASSEM_MEMBER
  6
Continuous
 62
     7
100
AcDbLine
 10
146.4636258104
 20
371.6053176752
 30
0.0
 11
145.8136258104
 21
371.2300400003
 31
0.0
  0
LINE
  5
4FE
330
24F
100
AcDbEntity
  8
ALL_ASSEM_MEMBER
  6
Continuous
 62
     0
100
AcDbLine
 10
47.3104324814
 20
322.1641178235
 30
0.0
 11
42.6081756725
 21
320.2163792795
 31
0.0
  0
LINE
  5
4FF
330
24F
100
AcDbEntity
  8
ALL_ASSEM_MEMBER
  6
Continuous
 62
     0
100
AcDbLine
 10
172.8104324814
 20
374.1479199013
 30
0.0
 11
177.4667672783137
 21
376.0766369251696
 31
0.0
  0
LINE
  5
500
330
24F
100
AcDbEntity
  8
ALL_ASSEM_MEMBER
  6
Continuous
 62
     0
100
AcDbLine
 10
42.6540976843
 20
320.1055137356
 30
0.0
 11
47.3104324814
 21
322.0342307594
 31
0.0
  0
LINE
  5
501
330
24F
100
AcDbEntity
  8
ALL_ASSEM_MEMBER
  6
Continuous
 62
     0
100
AcDbLine
 10
172.8104324814
 20
374.0180328373
 30
0.0
 11
177.5126892903
 21
375.9657713813
 31
0.0
  0
LINE
  5
502
330
24F
100
AcDbEntity
  8
ALL_ASSEM_MEMBER
  6
Continuous
 62
     0
100
AcDbLine
 10
185.8104324814
 20
340.2910753304
 30
0.0
 11
192.5504324814
 21
340.2910753304
 31
0.0
  0
LINE
  5
503
330
24F
100
AcDbEntity
  8
ALL_ASSEM_MEMBER
  6
Continuous
 62
     0
100
AcDbLine
 10
184.8104324814
 20
340.3910753304
 30
0.0
 11
192.5504324814
 21
340.3910753304
 31
0.0
  0
LINE
  5
505
330
24F
100
AcDbEntity
  8
ALL_ASSEM_MEMBER
  6
Continuous
 62
     0
100
AcDbLine
 10
177.5604324814
 20
340.5910753304
 30
0.0
 11
187.4504324814
 21
340.5910753304
 31
0.0
  0
LINE
  5
507
330
24F
100
AcDbEntity
  8
ALL_ASSEM_MEMBER
  6
Continuous
 62
     0
100
AcDbLine
 10
192.8104324814
 20
340.8410753304
 30
0.0
 11
207.8104324814
 21
340.8410753304
 31
0.0
  0
LINE
  5
508
330
24F
100
AcDbEntity
  8
ALL_ASSEM_MEMBER
  6
Continuous
 62
     0
100
AcDbLine
 10
192.8104324814
 20
341.3410753304
 30
0.0
 11
195.8104324814
 21
341.3410753304
 31
0.0
  0
LINE
  5
509
330
24F
100
AcDbEntity
  8
ALL_ASSEM_MEMBER
  6
Continuous
 62
     0
100
AcDbLine
 10
207.8104324814
 20
341.6410753304
 30
0.0
 11
195.8104324814
 21
341.6410753304
 31
0.0
  0
LINE
  5
50A
330
24F
100
AcDbEntity
  8
ALL_ASSEM_MEMBER
  6
Continuous
 62
     0
100
AcDbLine
 10
47.3104324814
 20
374.0180328373
 30
0.0
 11
42.6081756725
 21
375.9657713813
 31
0.0
  0
LINE
  5
50B
330
24F
100
AcDbEntity
  8
ALL_ASSEM_MEMBER
  6
Continuous
 62
     0
100
AcDbLine
 10
172.8104324814
 20
322.0342307594
 30
0.0
 11
177.4667672785
 21
320.1055137356
 31
0.0
  0
LINE
  5
510
330
24F
100
AcDbEntity
  8
ALL_ASSEM_MEMBER
  6
Continuous
 62
     0
100
AcDbLine
 10
47.3104324814
 20
374.1479199013
 30
0.0
 11
42.6540976843
 21
376.0766369252
 31
0.0
  0
LINE
  5
511
330
24F
100
AcDbEntity
  8
ALL_ASSEM_MEMBER
  6
Continuous
 62
     0
100
AcDbLine
 10
172.8104324814
 20
322.1641178235
 30
0.0
 11
177.5126892903
 21
320.2163792795
 31
0.0
  0
LINE
  5
513
330
24F
100
AcDbEntity
  8
ALL_ASSEM_MEMBER
  6
Continuous
 62
     7
100
AcDbLine
 10
145.8136258104
 20
323.4509999606
 30
0.0
 11
145.1636258104
 21
323.8262776356
 31
0.0
  0
LINE
  5
514
330
24F
100
AcDbEntity
  8
ALL_ASSEM_MEMBER
  6
Continuous
 62
     7
100
AcDbLine
 10
145.8136258104
 20
324.9521106605
 30
0.0
 11
146.4636258104
 21
324.5768329855
 31
0.0
  0
LINE
  5
515
330
24F
100
AcDbEntity
  8
02___PRT_ALL_AXES
  6
CENTER
 62
     2
100
AcDbLine
 10
74.3072391524
 20
371.9805953502
 30
0.0
 11
77.0926623536
 21
370.1194350696
 31
0.0
  0
LINE
  5
516
330
24F
100
AcDbEntity
  8
02___PRT_ALL_AXES
  6
CENTER
 62
     2
100
AcDbLine
 10
145.8136258104
 20
324.2015553105
 30
0.0
 11
148.5990490116
 21
322.3403950299
 31
0.0
  0
LINE
  5
517
330
24F
100
AcDbEntity
  8
02___PRT_ALL_AXES
  6
CENTER
 62
     2
100
AcDbLine
 10
145.8136258104
 20
324.2015553105
 30
0.0
 11
143.0282026092
 21
326.0627155912
 31
0.0
  0
LINE
  5
518
330
24F
100
AcDbEntity
  8
02___PRT_ALL_AXES
  6
CENTER
 62
     2
100
AcDbLine
 10
74.3072391524
 20
371.9805953502
 30
0.0
 11
71.5218159512
 21
373.8417556308
 31
0.0
  0
LINE
  5
519
330
24F
100
AcDbEntity
  8
ALL_ASSEM_MEMBER
  6
Continuous
 62
     7
100
AcDbLine
 10
73.6572391524
 20
324.5768329855
 30
0.0
 11
74.3072391524
 21
324.9521106605
 31
0.0
  0
LINE
  5
51A
330
24F
100
AcDbEntity
  8
ALL_ASSEM_MEMBER
  6
Continuous
 62
     7
100
AcDbLine
 10
74.9572391524
 20
323.8262776356
 30
0.0
 11
74.3072391524
 21
323.4509999606
 31
0.0
  0
LINE
  5
51C
330
24F
100
AcDbEntity
  8
ALL_ASSEM_MEMBER
  6
Continuous
 62
     0
100
AcDbLine
 10
207.8104324814
 20
342.1410753304
 30
0.0
 11
195.8104324814
 21
342.1410753304
 31
0.0
  0
LINE
  5
51D
330
24F
100
AcDbEntity
  8
ALL_ASSEM_MEMBER
  6
Continuous
 62
     0
100
AcDbLine
 10
207.8104324814
 20
343.8410753304
 30
0.0
 11
208.3104324814
 21
343.8410753304
 31
0.0
  0
LINE
  5
51E
330
24F
100
AcDbEntity
  8
ALL_ASSEM_MEMBER
  6
Continuous
 62
     0
100
AcDbLine
 10
208.3104324814
 20
343.8910753304
 30
0.0
 11
210.8104324814
 21
343.8910753304
 31
0.0
  0
LINE
  5
51F
330
24F
100
AcDbEntity
  8
ALL_ASSEM_MEMBER
  6
Continuous
 62
     0
100
AcDbLine
 10
207.8104324814
 20
344.1410753304
 30
0.0
 11
208.3104324814
 21
344.1410753304
 31
0.0
  0
LINE
  5
520
330
24F
100
AcDbEntity
  8
ALL_ASSEM_MEMBER
  6
Continuous
 62
     0
100
AcDbLine
 10
194.4604324814
 20
344.5724219824
 30
0.0
 11
196.5604324814
 21
344.5724219824
 31
0.0
  0
LINE
  5
521
330
24F
100
AcDbEntity
  8
ALL_ASSEM_MEMBER
  6
Continuous
 62
     0
100
AcDbLine
 10
210.8104324814
 20
347.4274917291
 30
0.0
 11
211.3104324814
 21
347.4274917291
 31
0.0
  0
LINE
  5
522
330
24F
100
AcDbEntity
  8
ALL_ASSEM_MEMBER
  6
Continuous
 62
     0
100
AcDbLine
 10
187.8104324814
 20
347.5910841712
 30
0.0
 11
188.7104324814
 21
347.5910841712
 31
0.0
  0
LINE
  5
525
330
24F
100
AcDbEntity
  8
ALL_ASSEM_MEMBER
  6
Continuous
 62
     0
100
AcDbLine
 10
196.5604324814
 20
348.2097286783
 30
0.0
 11
194.4604324814
 21
348.2097286783
 31
0.0
  0
LINE
  5
526
330
24F
100
AcDbEntity
  8
ALL_ASSEM_MEMBER
  6
Continuous
 62
     0
100
AcDbLine
 10
188.7104324814
 20
348.5910664895
 30
0.0
 11
187.8104324814
 21
348.5910664895
 31
0.0
  0
LINE
  5
527
330
24F
100
AcDbEntity
  8
ALL_ASSEM_MEMBER
  6
Continuous
 62
     0
100
AcDbLine
 10
210.8104324814
 20
348.7546589317
 30
0.0
 11
211.3104324814
 21
348.7546589317
 31
0.0
  0
LWPOLYLINE
  5
528
330
24F
100
AcDbEntity
  8
ALL_ASSEM_MEMBER
  6
Continuous
 62
     0
100
AcDbPolyline
 90
       10
 70
     0
 43
0.0
 10
188.7104322082
 20
347.5910841712
 10
189.1370503089
 20
347.5827065132
 10
189.5820912253
 20
347.5568088298
 10
190.0343942623
 20
347.5135031111
 10
190.4908470185
 20
347.4532922002
 10
190.9483997709
 20
347.3770595823
 10
191.4039227525
 20
347.285995143
 10
191.8542606216
 20
347.1815815235
 10
192.2952428252
 20
347.0658437968
 10
192.7104324814
 20
346.9447788434
  0
LINE
  5
529
330
24F
100
AcDbEntity
  8
02___PRT_ALL_AXES
  6
CENTER
 62
     2
100
AcDbLine
 10
152.2341995387
 20
339.7021914837
 30
0.0
 11
148.9485688494
 21
340.3557440624
 31
0.0
  0
LINE
  5
52A
330
24F
100
AcDbEntity
  8
02___PRT_ALL_AXES
  6
CENTER
 62
     2
100
AcDbLine
 10
67.8866654241
 20
356.4799591771
 30
0.0
 11
64.6010347347
 21
357.1335117558
 31
0.0
  0
LINE
  5
52B
330
24F
100
AcDbEntity
  8
02___PRT_ALL_AXES
  6
CENTER
 62
     2
100
AcDbLine
 10
67.8866654241
 20
356.4799591771
 30
0.0
 11
71.1722961134
 21
355.8264065983
 31
0.0
  0
LINE
  5
52C
330
24F
100
AcDbEntity
  8
02___PRT_ALL_AXES
  6
CENTER
 62
     2
100
AcDbLine
 10
152.2341995387
 20
339.7021914837
 30
0.0
 11
155.5198302281
 21
339.0486389049
 31
0.0
  0
LINE
  5
52E
330
24F
100
AcDbEntity
  8
ALL_ASSEM_MEMBER
  6
Continuous
 62
     7
100
AcDbLine
 10
74.3072391524
 20
371.2300400003
 30
0.0
 11
73.6572391524
 21
371.6053176752
 31
0.0
  0
LINE
  5
52F
330
24F
100
AcDbEntity
  8
ALL_ASSEM_MEMBER
  6
Continuous
 62
     7
100
AcDbLine
 10
74.3072391524
 20
372.7311507002
 30
0.0
 11
74.9572391524
 21
372.3558730252
 31
0.0
  0
LWPOLYLINE
  5
530
330
24F
100
AcDbEntity
  8
ALL_ASSEM_MEMBER
  6
Continuous
 62
     0
100
AcDbPolyline
 90
       16
 70
     0
 43
0.0
 10
138.0459940762
 20
280.6847405333
 10
138.0468784631
 20
280.6793093308
 10
138.0455848545
 20
280.6725676594
 10
138.0419738989
 20
280.6647692523
 10
138.0360484227
 20
280.6564893965
 10
138.0281907255
 20
280.6485174611
 10
138.0187337998
 20
280.6412968866
 10
138.0079762226
 20
280.635150258
 10
137.996486149
 20
280.6304344076
 10
137.9846938444
 20
280.6272890423
 10
137.9728571605
 20
280.6257647221
 10
137.9615155724
 20
280.6259293068
 10
137.9516205481
 20
280.6276645418
 10
137.9437930293
 20
280.6306183433
 10
137.9382382493
 20
280.6344526371
 10
137.9351285323
 20
280.6388185214
  0
LINE
  5
531
330
24F
100
AcDbEntity
  8
ALL_ASSEM_MEMBER
  6
Continuous
 62
     7
100
AcDbLine
 10
133.2999525012
 20
311.9626043264
 30
0.0
 11
133.2999525012
 21
312.7131596763
 31
0.0
  0
LINE
  5
532
330
24F
100
AcDbEntity
  8
ALL_ASSEM_MEMBER
  6
Continuous
 62
     7
100
AcDbLine
 10
133.2999525012
 20
383.4689909844
 30
0.0
 11
133.2999525012
 21
384.2195463344
 31
0.0
  0
LINE
  5
533
330
24F
100
AcDbEntity
  8
ALL_ASSEM_MEMBER
  6
Continuous
 62
     7
100
AcDbLine
 10
134.5999525012
 20
384.2195463344
 30
0.0
 11
134.5999525012
 21
383.4689909844
 31
0.0
  0
LINE
  5
534
330
24F
100
AcDbEntity
  8
ALL_ASSEM_MEMBER
  6
Continuous
 62
     7
100
AcDbLine
 10
134.5999525012
 20
312.7131596763
 30
0.0
 11
134.5999525012
 21
311.9626043264
 31
0.0
  0
LWPOLYLINE
  5
535
330
24F
100
AcDbEntity
  8
ALL_ASSEM_MEMBER
  6
Continuous
 62
     0
100
AcDbPolyline
 90
       16
 70
     0
 43
0.0
 10
82.1857364305
 20
280.6388185214
 10
82.1825213463
 20
280.6343527253
 10
82.1768395453
 20
280.6305003631
 10
82.1687719076
 20
280.6275393878
 10
82.158727221
 20
280.62587459
 10
82.1475339804
 20
280.6257938115
 10
82.1357412069
 20
280.6273751505
 10
82.1237881284
 20
280.6306355836
 10
82.1123288096
 20
280.6354256827
 10
82.101766282
 20
280.6415399922
 10
82.0923186254
 20
280.6488319344
 10
82.0844152905
 20
280.6569680272
 10
82.0786454482
 20
280.6651918625
 10
82.0751992096
 20
280.6728154071
 10
82.0739826421
 20
280.6794544849
 10
82.0748708866
 20
280.6847405333
  0
LINE
  5
536
330
24F
100
AcDbEntity
  8
ALL_ASSEM_MEMBER
  6
Continuous
 62
     7
100
AcDbLine
 10
151.5841995387
 20
356.855236852
 30
0.0
 11
152.2341995387
 21
357.230514527
 31
0.0
  0
LINE
  5
537
330
24F
100
AcDbEntity
  8
ALL_ASSEM_MEMBER
  6
Continuous
 62
     7
100
AcDbLine
 10
152.8841995387
 20
356.1046815021
 30
0.0
 11
152.2341995387
 21
355.7294038271
 31
0.0
  0
LINE
  5
538
330
24F
100
AcDbEntity
  8
02___PRT_ALL_AXES
  6
CENTER
 62
     2
100
AcDbLine
 10
152.2341995387
 20
356.4799591771
 30
0.0
 11
148.9485688494
 21
355.8264065983
 31
0.0
  0
LINE
  5
539
330
24F
100
AcDbEntity
  8
02___PRT_ALL_AXES
  6
CENTER
 62
     2
100
AcDbLine
 10
67.8866654241
 20
339.7021914837
 30
0.0
 11
64.6010347347
 21
339.0486389049
 31
0.0
  0
LINE
  5
53A
330
24F
100
AcDbEntity
  8
02___PRT_ALL_AXES
  6
CENTER
 62
     2
100
AcDbLine
 10
67.8866654241
 20
339.7021914837
 30
0.0
 11
71.1722961134
 21
340.3557440624
 31
0.0
  0
LINE
  5
53B
330
24F
100
AcDbEntity
  8
02___PRT_ALL_AXES
  6
CENTER
 62
     2
100
AcDbLine
 10
152.2341995387
 20
356.4799591771
 30
0.0
 11
155.5198302281
 21
357.1335117558
 31
0.0
  0
LINE
  5
53C
330
24F
100
AcDbEntity
  8
ALL_ASSEM_MEMBER
  6
Continuous
 62
     0
100
AcDbLine
 10
207.8104324814
 20
352.0410753304
 30
0.0
 11
208.3104324814
 21
352.0410753304
 31
0.0
  0
LINE
  5
53D
330
24F
100
AcDbEntity
  8
ALL_ASSEM_MEMBER
  6
Continuous
 62
     0
100
AcDbLine
 10
208.3104324814
 20
352.2910753304
 30
0.0
 11
210.8104324814
 21
352.2910753304
 31
0.0
  0
LINE
  5
53E
330
24F
100
AcDbEntity
  8
ALL_ASSEM_MEMBER
  6
Continuous
 62
     0
100
AcDbLine
 10
207.8104324814
 20
352.3410753304
 30
0.0
 11
208.3104324814
 21
352.3410753304
 31
0.0
  0
LINE
  5
53F
330
24F
100
AcDbEntity
  8
ALL_ASSEM_MEMBER
  6
Continuous
 62
     0
100
AcDbLine
 10
207.8104324814
 20
354.0410753304
 30
0.0
 11
195.8104324814
 21
354.0410753304
 31
0.0
  0
LINE
  5
540
330
24F
100
AcDbEntity
  8
ALL_ASSEM_MEMBER
  6
Continuous
 62
     0
100
AcDbLine
 10
207.8104324814
 20
354.5410753304
 30
0.0
 11
195.8104324814
 21
354.5410753304
 31
0.0
  0
LINE
  5
541
330
24F
100
AcDbEntity
  8
ALL_ASSEM_MEMBER
  6
Continuous
 62
     0
100
AcDbLine
 10
192.8104324814
 20
354.8410753304
 30
0.0
 11
195.8104324814
 21
354.8410753304
 31
0.0
  0
LINE
  5
542
330
24F
100
AcDbEntity
  8
ALL_ASSEM_MEMBER
  6
Continuous
 62
     0
100
AcDbLine
 10
192.8104324814
 20
355.3410753304
 30
0.0
 11
207.8104324814
 21
355.3410753304
 31
0.0
  0
LINE
  5
544
330
24F
100
AcDbEntity
  8
ALL_ASSEM_MEMBER
  6
Continuous
 62
     0
100
AcDbLine
 10
187.5604324814
 20
355.4410753304
 30
0.0
 11
177.5604324814
 21
355.4410753304
 31
0.0
  0
LINE
  5
545
330
24F
100
AcDbEntity
  8
ALL_ASSEM_MEMBER
  6
Continuous
 62
     0
100
AcDbLine
 10
187.4504324814
 20
355.5910753304
 30
0.0
 11
177.5604324814
 21
355.5910753304
 31
0.0
  0
LINE
  5
547
330
24F
100
AcDbEntity
  8
ALL_ASSEM_MEMBER
  6
Continuous
 62
     0
100
AcDbLine
 10
192.5504324814
 20
355.7910753304
 30
0.0
 11
184.8104324814
 21
355.7910753304
 31
0.0
  0
LINE
  5
548
330
24F
100
AcDbEntity
  8
ALL_ASSEM_MEMBER
  6
Continuous
 62
     0
100
AcDbLine
 10
185.8104324814
 20
355.8910753304
 30
0.0
 11
192.5504324814
 21
355.8910753304
 31
0.0
  0
LINE
  5
54C
330
24F
100
AcDbEntity
  8
ALL_ASSEM_MEMBER
  6
Continuous
 62
     7
100
AcDbLine
 10
152.2341995387
 20
338.9516361337
 30
0.0
 11
151.5841995387
 21
339.3269138087
 31
0.0
  0
LINE
  5
54D
330
24F
100
AcDbEntity
  8
ALL_ASSEM_MEMBER
  6
Continuous
 62
     7
100
AcDbLine
 10
152.2341995387
 20
340.4527468336
 30
0.0
 11
152.8841995387
 21
340.0774691587
 31
0.0
  0
LINE
  5
54E
330
24F
100
AcDbEntity
  8
ALL_ASSEM_MEMBER
  6
Continuous
 62
     9
100
AcDbLine
 10
47.5104324814
 20
410.5410766986
 30
0.0
 11
47.8104634385
 21
410.3410547341
 31
0.0
  0
LWPOLYLINE
  5
54F
330
24F
100
AcDbEntity
  8
ALL_ASSEM_MEMBER
  6
Continuous
 62
     0
100
AcDbPolyline
 90
       16
 70
     0
 43
0.0
 10
177.5126892903
 20
320.2163792795
 10
177.5171550864
 20
320.2131641953
 10
177.5210074486
 20
320.2074823943
 10
177.523968424
 20
320.1994147566
 10
177.5256332218
 20
320.18937007
 10
177.5257140003
 20
320.1781768294
 10
177.5241326612
 20
320.1663840559
 10
177.5208722282
 20
320.1544309774
 10
177.516082129
 20
320.1429716586
 10
177.5099678196
 20
320.1324091309
 10
177.5026758774
 20
320.1229614744
 10
177.4945397845
 20
320.1150581395
 10
177.4863159492
 20
320.1092882971
 10
177.4786924047
 20
320.1058420586
 10
177.4720533269
 20
320.1046254911
 10
177.4667672785
 20
320.1055137356
  0
LINE
  5
550
330
24F
100
AcDbEntity
  8
ALL_ASSEM_MEMBER
  6
Continuous
 62
     7
100
AcDbLine
 10
85.5209124616
 20
312.7131596763
 30
0.0
 11
86.1709124616
 21
313.0884373513
 31
0.0
  0
LINE
  5
551
330
24F
100
AcDbEntity
  8
ALL_ASSEM_MEMBER
  6
Continuous
 62
     7
100
AcDbLine
 10
86.8209124616
 20
311.9626043264
 30
0.0
 11
86.1709124616
 21
311.5873266514
 31
0.0
  0
LINE
  5
554
330
24F
100
AcDbEntity
  8
ALL_ASSEM_MEMBER
  6
Continuous
 62
     7
100
AcDbLine
 10
86.1709124616
 20
383.0937133094
 30
0.0
 11
85.5209124616
 21
383.4689909844
 31
0.0
  0
LINE
  5
555
330
24F
100
AcDbEntity
  8
ALL_ASSEM_MEMBER
  6
Continuous
 62
     7
100
AcDbLine
 10
86.1709124616
 20
384.5948240093
 30
0.0
 11
86.8209124616
 21
384.2195463344
 31
0.0
  0
LINE
  5
556
330
24F
100
AcDbEntity
  8
ALL_ASSEM_MEMBER
  6
Continuous
 62
     7
100
AcDbLine
 10
145.1636258104
 20
323.8262776356
 30
0.0
 11
145.1636258104
 21
324.5768329855
 31
0.0
  0
LINE
  5
557
330
24F
100
AcDbEntity
  8
ALL_ASSEM_MEMBER
  6
Continuous
 62
     7
100
AcDbLine
 10
145.1636258104
 20
371.6053176752
 30
0.0
 11
145.1636258104
 21
372.3558730252
 31
0.0
  0
LINE
  5
558
330
24F
100
AcDbEntity
  8
ALL_ASSEM_MEMBER
  6
Continuous
 62
     7
100
AcDbLine
 10
146.4636258104
 20
372.3558730252
 30
0.0
 11
146.4636258104
 21
371.6053176752
 31
0.0
  0
LINE
  5
559
330
24F
100
AcDbEntity
  8
ALL_ASSEM_MEMBER
  6
Continuous
 62
     7
100
AcDbLine
 10
146.4636258104
 20
324.5768329855
 30
0.0
 11
146.4636258104
 21
323.8262776356
 31
0.0
  0
LINE
  5
55A
330
24F
100
AcDbEntity
  8
ALL_ASSEM_MEMBER
  6
Continuous
 62
     7
100
AcDbLine
 10
151.5841995387
 20
340.0774691587
 30
0.0
 11
152.2341995387
 21
340.4527468336
 31
0.0
  0
LINE
  5
55B
330
24F
100
AcDbEntity
  8
ALL_ASSEM_MEMBER
  6
Continuous
 62
     7
100
AcDbLine
 10
152.8841995387
 20
339.3269138087
 30
0.0
 11
152.2341995387
 21
338.9516361337
 31
0.0
  0
LWPOLYLINE
  5
55C
330
24F
100
AcDbEntity
  8
ALL_ASSEM_MEMBER
  6
Continuous
 62
     0
100
AcDbPolyline
 90
       16
 70
     0
 43
0.0
 10
177.4667672785
 20
376.0766369252
 10
177.472198481
 20
376.0775213121
 10
177.4789401524
 20
376.0762277035
 10
177.4867385595
 20
376.0726167479
 10
177.4950184153
 20
376.0666912717
 10
177.5029903507
 20
376.0588335744
 10
177.5102109252
 20
376.0493766488
 10
177.5163575538
 20
376.0386190716
 10
177.5210734042
 20
376.027128998
 10
177.5242187695
 20
376.0153366933
 10
177.5257430897
 20
376.0035000095
 10
177.525578505
 20
375.9921584214
 10
177.5238432699
 20
375.9822633971
 10
177.5208894685
 20
375.9744358783
 10
177.5170551747
 20
375.9688810983
 10
177.5126892903
 20
375.9657713813
  0
LWPOLYLINE
  5
560
330
24F
100
AcDbEntity
  8
ALL_ASSEM_MEMBER
  6
Continuous
 62
     0
100
AcDbPolyline
 90
       10
 70
     0
 43
0.0
 10
192.7104324814
 20
347.9865718928
 10
192.3909501652
 20
348.0761196383
 10
191.9390898153
 20
348.1899721761
 10
191.4757667738
 20
348.292912718
 10
191.0052185075
 20
348.382808234
 10
190.5317305791
 20
348.4578840315
 10
190.0597754323
 20
348.516792105
 10
189.5941353979
 20
348.5586867654
 10
189.1397672162
 20
348.5832975287
 10
188.7104328219
 20
348.5910664895
  0
LINE
  5
561
330
24F
100
AcDbEntity
  8
ALL_ASSEM_MEMBER
  6
Continuous
 62
     7
100
AcDbLine
 10
152.2341995387
 20
355.7294038271
 30
0.0
 11
151.5841995387
 21
356.1046815021
 31
0.0
  0
LINE
  5
562
330
24F
100
AcDbEntity
  8
ALL_ASSEM_MEMBER
  6
Continuous
 62
     7
100
AcDbLine
 10
152.2341995387
 20
357.230514527
 30
0.0
 11
152.8841995387
 21
356.855236852
 31
0.0
  0
LINE
  5
564
330
24F
100
AcDbEntity
  8
ALL_ASSEM_MEMBER
  6
Continuous
 62
     7
100
AcDbLine
 10
151.5841995387
 20
339.3269138087
 30
0.0
 11
151.5841995387
 21
340.0774691587
 31
0.0
  0
LINE
  5
565
330
24F
100
AcDbEntity
  8
ALL_ASSEM_MEMBER
  6
Continuous
 62
     7
100
AcDbLine
 10
151.5841995387
 20
356.1046815021
 30
0.0
 11
151.5841995387
 21
356.855236852
 31
0.0
  0
LINE
  5
566
330
24F
100
AcDbEntity
  8
ALL_ASSEM_MEMBER
  6
Continuous
 62
     7
100
AcDbLine
 10
152.8841995387
 20
356.855236852
 30
0.0
 11
152.8841995387
 21
356.1046815021
 31
0.0
  0
LINE
  5
567
330
24F
100
AcDbEntity
  8
ALL_ASSEM_MEMBER
  6
Continuous
 62
     7
100
AcDbLine
 10
152.8841995387
 20
340.0774691587
 30
0.0
 11
152.8841995387
 21
339.3269138087
 31
0.0
  0
LINE
  5
568
330
24F
100
AcDbEntity
  8
ALL_ASSEM_MEMBER
  6
Continuous
 62
     7
100
AcDbLine
 10
101.0215486347
 20
306.292585948
 30
0.0
 11
101.6715486347
 21
306.667863623
 31
0.0
  0
LINE
  5
569
330
24F
100
AcDbEntity
  8
ALL_ASSEM_MEMBER
  6
Continuous
 62
     7
100
AcDbLine
 10
102.3215486347
 20
305.5420305981
 30
0.0
 11
101.6715486347
 21
305.1667529231
 31
0.0
  0
LINE
  5
56A
330
24F
100
AcDbEntity
  8
ALL_ASSEM_MEMBER
  6
Continuous
 62
     7
100
AcDbLine
 10
145.1636258104
 20
324.5768329855
 30
0.0
 11
145.8136258104
 21
324.9521106605
 31
0.0
  0
LINE
  5
56E
330
24F
100
AcDbEntity
  8
ALL_ASSEM_MEMBER
  6
Continuous
 62
     7
100
AcDbLine
 10
101.6715486347
 20
389.5142870378
 30
0.0
 11
101.0215486347
 21
389.8895647127
 31
0.0
  0
LINE
  5
56F
330
24F
100
AcDbEntity
  8
ALL_ASSEM_MEMBER
  6
Continuous
 62
     7
100
AcDbLine
 10
101.6715486347
 20
391.0153977377
 30
0.0
 11
102.3215486347
 21
390.6401200627
 31
0.0
  0
LINE
  5
570
330
24F
100
AcDbEntity
  8
ALL_ASSEM_MEMBER
  6
Continuous
 62
     7
100
AcDbLine
 10
145.8136258104
 20
371.2300400003
 30
0.0
 11
145.1636258104
 21
371.6053176752
 31
0.0
  0
LINE
  5
571
330
24F
100
AcDbEntity
  8
ALL_ASSEM_MEMBER
  6
Continuous
 62
     7
100
AcDbLine
 10
146.4636258104
 20
323.8262776356
 30
0.0
 11
145.8136258104
 21
323.4509999606
 31
0.0
  0
LINE
  5
572
330
24F
100
AcDbEntity
  8
ALL_ASSEM_MEMBER
  6
Continuous
 62
     7
100
AcDbLine
 10
117.7993163281
 20
306.292585948
 30
0.0
 11
118.4493163281
 21
306.667863623
 31
0.0
  0
LINE
  5
573
330
24F
100
AcDbEntity
  8
ALL_ASSEM_MEMBER
  6
Continuous
 62
     7
100
AcDbLine
 10
119.0993163281
 20
305.5420305981
 30
0.0
 11
118.4493163281
 21
305.1667529231
 31
0.0
  0
LINE
  5
574
330
24F
100
AcDbEntity
  8
ALL_ASSEM_MEMBER
  6
Continuous
 62
     7
100
AcDbLine
 10
133.2999525012
 20
312.7131596763
 30
0.0
 11
133.9499525012
 21
313.0884373513
 31
0.0
  0
LINE
  5
575
330
24F
100
AcDbEntity
  8
ALL_ASSEM_MEMBER
  6
Continuous
 62
     7
100
AcDbLine
 10
134.5999525012
 20
311.9626043264
 30
0.0
 11
133.9499525012
 21
311.5873266514
 31
0.0
  0
LINE
  5
577
330
24F
100
AcDbEntity
  8
ALL_ASSEM_MEMBER
  6
Continuous
 62
     7
100
AcDbLine
 10
145.8136258104
 20
372.7311507002
 30
0.0
 11
146.4636258104
 21
372.3558730252
 31
0.0
  0
LINE
  5
578
330
24F
100
AcDbEntity
  8
ALL_ASSEM_MEMBER
  6
Continuous
 62
     7
100
AcDbLine
 10
118.4493163281
 20
389.5142870378
 30
0.0
 11
117.7993163281
 21
389.8895647127
 31
0.0
  0
LINE
  5
579
330
24F
100
AcDbEntity
  8
ALL_ASSEM_MEMBER
  6
Continuous
 62
     7
100
AcDbLine
 10
118.4493163281
 20
391.0153977377
 30
0.0
 11
119.0993163281
 21
390.6401200627
 31
0.0
  0
LINE
  5
57A
330
24F
100
AcDbEntity
  8
ALL_ASSEM_MEMBER
  6
Continuous
 62
     7
100
AcDbLine
 10
133.9499525012
 20
383.0937133094
 30
0.0
 11
133.2999525012
 21
383.4689909844
 31
0.0
  0
LINE
  5
57B
330
24F
100
AcDbEntity
  8
ALL_ASSEM_MEMBER
  6
Continuous
 62
     7
100
AcDbLine
 10
133.9499525012
 20
384.5948240093
 30
0.0
 11
134.5999525012
 21
384.2195463344
 31
0.0
  0
LINE
  5
57C
330
24F
100
AcDbEntity
  8
ALL_ASSEM_MEMBER
  6
Continuous
 62
     0
100
AcDbLine
 10
109.8336557861
 20
415.5178520257
 30
0.0
 11
109.9755274007
 21
415.3759804111
 31
0.0
  0
LINE
  5
57E
330
24F
100
AcDbEntity
  8
ALL_ASSEM_MEMBER
  6
Continuous
 62
     7
100
AcDbLine
 10
172.6104324814
 20
410.5410753304
 30
0.0
 11
172.6104324814
 21
285.6410753304
 31
0.0
  0
LINE
  5
57F
330
24F
100
AcDbEntity
  8
ALL_ASSEM_MEMBER
  6
Continuous
 62
     7
100
AcDbLine
 10
172.8104324814
 20
410.5410753304
 30
0.0
 11
172.8104324814
 21
285.6410753304
 31
0.0
  0
LINE
  5
580
330
24F
100
AcDbEntity
  8
ALL_ASSEM_MEMBER
  6
Continuous
 62
     0
100
AcDbLine
 10
177.5604324814
 20
320.1316598702001
 30
0.0
 11
177.5604324814
 21
376.0504907906
 31
0.0
  0
LINE
  5
587
330
24F
100
AcDbEntity
  8
ALL_ASSEM_MEMBER
  6
Continuous
 62
     0
100
AcDbLine
 10
184.8104324814
 20
355.7910753304
 30
0.0
 11
184.8104324814
 21
355.5910753304
 31
0.0
  0
LINE
  5
588
330
24F
100
AcDbEntity
  8
ALL_ASSEM_MEMBER
  6
Continuous
 62
     0
100
AcDbLine
 10
184.8104324814
 20
340.3910753304
 30
0.0
 11
184.8104324814
 21
340.5910753304
 31
0.0
  0
LINE
  5
589
330
24F
100
AcDbEntity
  8
ALL_ASSEM_MEMBER
  6
Continuous
 62
     0
100
AcDbLine
 10
194.4604324814
 20
348.2097286783
 30
0.0
 11
193.4104324814
 21
346.3910753304
 31
0.0
  0
LINE
  5
58B
330
24F
100
AcDbEntity
  8
ALL_ASSEM_MEMBER
  6
Continuous
 62
     0
100
AcDbLine
 10
138.0198479416004
 20
280.5910753304
 30
0.0
 11
142.7698479416003
 21
285.3410753304
 31
0.0
  0
LINE
  5
58E
330
24F
100
AcDbEntity
  8
ALL_ASSEM_MEMBER
  6
Continuous
 62
     0
100
AcDbLine
 10
177.5604324814
 20
376.0504907906
 30
0.0
 11
172.8104324814
 21
380.8004907906
 31
0.0
  0
LINE
  5
58F
330
24F
100
AcDbEntity
  8
ALL_ASSEM_MEMBER
  6
Continuous
 62
     0
100
AcDbLine
 10
142.7698479416
 20
410.8410753304
 30
0.0
 11
138.0198479416001
 21
415.5910753304
 31
0.0
  0
LINE
  5
590
330
24F
100
AcDbEntity
  8
ALL_ASSEM_MEMBER
  6
Continuous
 62
     0
100
AcDbLine
 10
193.4104324814
 20
346.3910753304
 30
0.0
 11
194.4604324814
 21
344.5724219824
 31
0.0
  0
LINE
  5
592
330
24F
100
AcDbEntity
  8
ALL_ASSEM_MEMBER
  6
Continuous
 62
     0
100
AcDbLine
 10
185.8104324814
 20
340.3910753304
 30
0.0
 11
185.8104324814
 21
340.2910753304
 31
0.0
  0
LINE
  5
593
330
24F
100
AcDbEntity
  8
ALL_ASSEM_MEMBER
  6
Continuous
 62
     0
100
AcDbLine
 10
185.8104324814
 20
355.7910753304
 30
0.0
 11
185.8104324814
 21
355.8910753304
 31
0.0
  0
LINE
  5
598
330
24F
100
AcDbEntity
  8
ALL_ASSEM_MEMBER
  6
Continuous
 62
     0
100
AcDbLine
 10
187.6104324814
 20
340.7510753304
 30
0.0
 11
187.6104324814
 21
355.4310753304
 31
0.0
  0
LINE
  5
599
330
24F
100
AcDbEntity
  8
ALL_ASSEM_MEMBER
  6
Continuous
 62
     0
100
AcDbLine
 10
187.8104324814
 20
340.7510753304
 30
0.0
 11
187.8104324814
 21
355.4310753304
 31
0.0
  0
LINE
  5
59D
330
24F
100
AcDbEntity
  8
ALL_ASSEM_MEMBER
  6
Continuous
 62
     0
100
AcDbLine
 10
192.7104324814
 20
340.5510753304
 30
0.0
 11
192.7104324814
 21
355.6310753304
 31
0.0
  0
LINE
  5
59E
330
24F
100
AcDbEntity
  8
ALL_ASSEM_MEMBER
  6
Continuous
 62
     0
100
AcDbLine
 10
196.5604324814
 20
344.5724219824
 30
0.0
 11
197.6104324814
 21
346.3910753304
 31
0.0
  0
LINE
  5
59F
330
24F
100
AcDbEntity
  8
ALL_ASSEM_MEMBER
  6
Continuous
 62
     7
100
AcDbLine
 10
47.6104324814
 20
410.6410753304
 30
0.0
 11
172.5104324814
 21
410.6410753304
 31
0.0
  0
LINE
  5
5A0
330
24F
100
AcDbEntity
  8
ALL_ASSEM_MEMBER
  6
Continuous
 62
     7
100
AcDbLine
 10
47.6104324814
 20
410.8410753304
 30
0.0
 11
172.5104324814
 21
410.8410753304
 31
0.0
  0
LINE
  5
5A3
330
24F
100
AcDbEntity
  8
ALL_ASSEM_MEMBER
  6
Continuous
 62
     0
100
AcDbLine
 10
197.6104324814
 20
346.3910753304
 30
0.0
 11
196.5604324814
 21
348.2097286783
 31
0.0
  0
LINE
  5
5A4
330
24F
100
AcDbEntity
  8
ALL_ASSEM_MEMBER
  6
Continuous
 62
     0
100
AcDbLine
 10
192.8104324814
 20
340.5510753304
 30
0.0
 11
192.8104324814
 21
355.6310753304
 31
0.0
  0
LINE
  5
5A5
330
24F
100
AcDbEntity
  8
ALL_ASSEM_MEMBER
  6
Continuous
 62
     0
100
AcDbLine
 10
195.8104324814
 20
355.3410753304
 30
0.0
 11
195.8104324814
 21
354.0410753304
 31
0.0
  0
LINE
  5
5A6
330
24F
100
AcDbEntity
  8
ALL_ASSEM_MEMBER
  6
Continuous
 62
     0
100
AcDbLine
 10
195.8104324814
 20
342.1410753304
 30
0.0
 11
195.8104324814
 21
340.8410753304
 31
0.0
  0
LINE
  5
5A8
330
24F
100
AcDbEntity
  8
ALL_ASSEM_MEMBER
  6
Continuous
 62
     0
100
AcDbLine
 10
138.0198479416001
 20
415.5910753304
 30
0.0
 11
110.0754324814
 21
415.5910753304
 31
0.0
  0
LINE
  5
5AA
330
24F
100
AcDbEntity
  8
ALL_ASSEM_MEMBER
  6
Continuous
 62
     0
100
AcDbLine
 10
109.7604324814
 20
415.5910753304
 30
0.0
 11
82.10101702119997
 21
415.5910753304
 31
0.0
  0
LINE
  5
5AC
330
24F
100
AcDbEntity
  8
ALL_ASSEM_MEMBER
  6
Continuous
 62
     0
100
AcDbLine
 10
110.0104324814
 20
415.3613377775
 30
0.0
 11
110.0754324814
 21
415.3607524179
 31
0.0
  0
LINE
  5
5AE
330
24F
100
AcDbEntity
  8
ALL_ASSEM_MEMBER
  6
Continuous
 62
     0
100
AcDbLine
 10
207.8104324814
 20
340.8410753304
 30
0.0
 11
207.8104324814
 21
355.3410753304
 31
0.0
  0
LINE
  5
5AF
330
24F
100
AcDbEntity
  8
ALL_ASSEM_MEMBER
  6
Continuous
 62
     0
100
AcDbLine
 10
208.3104324814
 20
352.3410753304
 30
0.0
 11
208.3104324814
 21
343.8410753304
 31
0.0
  0
LINE
  5
5B0
330
24F
100
AcDbEntity
  8
ALL_ASSEM_MEMBER
  6
Continuous
 62
     0
100
AcDbLine
 10
210.8104324814
 20
352.2910748924
 30
0.0
 11
210.8104324814
 21
348.7546589317
 31
0.0
  0
LINE
  5
5B1
330
24F
100
AcDbEntity
  8
ALL_ASSEM_MEMBER
  6
Continuous
 62
     0
100
AcDbLine
 10
210.8104324814
 20
347.4274917291
 30
0.0
 11
210.8104324814
 21
343.8910757684
 31
0.0
  0
LINE
  5
5B2
330
24F
100
AcDbEntity
  8
ALL_ASSEM_MEMBER
  6
Continuous
 62
     0
100
AcDbLine
 10
211.3104324814
 20
348.7546589317
 30
0.0
 11
211.3104324814
 21
347.4274917291
 31
0.0
  0
LINE
  5
5B3
102
{ACAD_REACTORS
102
}
330
24F
100
AcDbEntity
  8
ALL_ASSEM_MEMBER
  6
Continuous
 62
     0
100
AcDbLine
 10
42.5604324814
 20
98.7125117707
 30
0.0
 11
42.5604324814
 21
43.0007876315
 31
0.0
  0
LINE
  5
5B4
330
24F
100
AcDbEntity
  8
ALL_ASSEM_MEMBER
  6
Continuous
 62
     0
100
AcDbLine
 10
42.6001378625
 20
98.7125117707
 30
0.0
 11
42.6001378625
 21
43.0007876315
 31
0.0
  0
LINE
  5
5B5
330
24F
100
AcDbEntity
  8
ALL_ASSEM_MEMBER
  6
Continuous
 62
     0
100
AcDbLine
 10
47.0604324814
 20
96.8979845206
 30
0.0
 11
47.0604324814
 21
44.8153148816
 31
0.0
  0
LINE
  5
5B6
330
24F
100
AcDbEntity
  8
ALL_ASSEM_MEMBER
  6
Continuous
 62
     0
100
AcDbLine
 10
47.1866092527
 20
96.8979845206
 30
0.0
 11
47.1866092527
 21
44.8153148816
 31
0.0
  0
LINE
  5
5B7
330
24F
100
AcDbEntity
  8
ALL_ASSEM_MEMBER
  6
Continuous
 62
     0
100
AcDbLine
 10
47.3104324814
 20
133.3066497011
 30
0.0
 11
47.3104324814
 21
103.5660651613
 31
0.0
  0
LINE
  5
5B8
330
24F
100
AcDbEntity
  8
ALL_ASSEM_MEMBER
  6
Continuous
 62
     0
100
AcDbLine
 10
47.3104324814
 20
96.8564642957
 30
0.0
 11
47.3104324814
 21
96.8406371843
 31
0.0
  0
LINE
  5
5B9
330
24F
100
AcDbEntity
  8
ALL_ASSEM_MEMBER
  6
Continuous
 62
     0
100
AcDbLine
 10
47.3104324814
 20
44.8726622179
 30
0.0
 11
47.3104324814
 21
44.8568351065
 31
0.0
  0
LINE
  5
5BA
330
24F
100
AcDbEntity
  8
ALL_ASSEM_MEMBER
  6
Continuous
 62
     0
100
AcDbLine
 10
47.3104324814
 20
38.1472342409
 30
0.0
 11
47.3104324814
 21
8.4066497011
 31
0.0
  0
LINE
  5
5BB
330
24F
100
AcDbEntity
  8
ALL_ASSEM_MEMBER
  6
Continuous
 62
     0
100
AcDbLine
 10
82.0277937165
 20
138.2834263964
 30
0.0
 11
42.6336557861
 21
98.889288466
 31
0.0
  0
LINE
  5
5BC
330
24F
100
AcDbEntity
  8
ALL_ASSEM_MEMBER
  6
Continuous
 62
     0
100
AcDbLine
 10
82.0558696608
 20
138.2553504522
 30
0.0
 11
42.6617317304
 21
98.8612125217
 31
0.0
  0
LINE
  5
5BD
330
24F
100
AcDbEntity
  8
ALL_ASSEM_MEMBER
  6
Continuous
 62
     0
100
AcDbLine
 10
42.6336557861
 20
42.8240109362
 30
0.0
 11
82.0277937165
 21
3.4298730058
 31
0.0
  0
LINE
  5
5BE
330
24F
100
AcDbEntity
  8
ALL_ASSEM_MEMBER
  6
Continuous
 62
     0
100
AcDbLine
 10
42.6617317304
 20
42.8520868805
 30
0.0
 11
82.0558696608
 21
3.4579489501
 31
0.0
  0
LINE
  5
5C0
330
24F
100
AcDbEntity
  8
ALL_ASSEM_MEMBER
  6
Continuous
 62
     0
100
AcDbLine
 10
49.9604324814
 20
70.8566497011
 30
0.0
 11
49.9604324814
 21
70.7066497011
 31
0.0
  0
LINE
  5
5C2
330
24F
100
AcDbEntity
  8
ALL_ASSEM_MEMBER
  6
Continuous
 62
     0
100
AcDbLine
 10
50.0399033852
 20
46.0032460844
 30
0.0
 11
50.0399033852
 21
70.7066497011
 31
0.0
  0
LINE
  5
5C3
330
24F
100
AcDbEntity
  8
ALL_ASSEM_MEMBER
  6
Continuous
 62
     0
100
AcDbLine
 10
50.0399033852
 20
71.0066497011
 30
0.0
 11
50.0399033852
 21
95.7100533179
 31
0.0
  0
LINE
  5
5C4
330
24F
100
AcDbEntity
  8
ALL_ASSEM_MEMBER
  6
Continuous
 62
     0
100
AcDbLine
 10
50.0604324814
 20
46.0066474564
 30
0.0
 11
50.0604324814
 21
70.7066497011
 31
0.0
  0
LINE
  5
5C5
330
24F
100
AcDbEntity
  8
ALL_ASSEM_MEMBER
  6
Continuous
 62
     0
100
AcDbLine
 10
50.0604324814
 20
71.0066497011
 30
0.0
 11
50.0604324814
 21
95.7066519459
 31
0.0
  0
LINE
  5
5C6
330
24F
100
AcDbEntity
  8
ALL_ASSEM_MEMBER
  6
Continuous
 62
     0
100
AcDbLine
 10
83.9267097087
 20
133.8183813579
 30
0.0
 11
47.0987008246
 21
96.9903724739
 31
0.0
  0
LINE
  5
5C7
330
24F
100
AcDbEntity
  8
ALL_ASSEM_MEMBER
  6
Continuous
 62
     0
100
AcDbLine
 10
84.0159301593
 20
133.7291609073
 30
0.0
 11
47.1879212752
 21
96.9011520232
 31
0.0
  0
LINE
  5
5C8
330
24F
100
AcDbEntity
  8
ALL_ASSEM_MEMBER
  6
Continuous
 62
     0
100
AcDbLine
 10
50.0454991141
 20
95.7235626025
 30
0.0
 11
85.19351958
 21
130.8715830684
 31
0.0
  0
LINE
  5
5C9
330
24F
100
AcDbEntity
  8
ALL_ASSEM_MEMBER
  6
Continuous
 62
     0
100
AcDbLine
 10
50.0624205105
 20
95.7114514726
 30
0.0
 11
85.2056307099
 21
130.8546616721
 31
0.0
  0
LINE
  5
5CA
330
24F
100
AcDbEntity
  8
ALL_ASSEM_MEMBER
  6
Continuous
 62
     0
100
AcDbLine
 10
47.0987008246
 20
44.7229269284
 30
0.0
 11
83.9267097087
 21
7.8949180444
 31
0.0
  0
LINE
  5
5CB
330
24F
100
AcDbEntity
  8
ALL_ASSEM_MEMBER
  6
Continuous
 62
     0
100
AcDbLine
 10
47.1879212752
 20
44.812147379
 30
0.0
 11
84.0159301593
 21
7.984138495
 31
0.0
  0
LINE
  5
5CC
330
24F
100
AcDbEntity
  8
ALL_ASSEM_MEMBER
  6
Continuous
 62
     0
100
AcDbLine
 10
85.19351958
 20
10.8417163338
 30
0.0
 11
50.0454991141
 21
45.9897367998
 31
0.0
  0
LINE
  5
5CD
330
24F
100
AcDbEntity
  8
ALL_ASSEM_MEMBER
  6
Continuous
 62
     0
100
AcDbLine
 10
85.2056307099
 20
10.8586377302
 30
0.0
 11
50.0624205105
 21
46.0018479297
 31
0.0
  0
LINE
  5
5CF
330
24F
100
AcDbEntity
  8
ALL_ASSEM_MEMBER
  6
Continuous
 62
     0
100
AcDbLine
 10
62.5604324814
 20
70.8566497011
 30
0.0
 11
62.5604324814
 21
71.0066497011
 31
0.0
  0
LINE
  5
5D5
330
24F
100
AcDbEntity
  8
ALL_ASSEM_MEMBER
  6
Continuous
 62
     0
100
AcDbLine
 10
82.2045704118
 20
3.3566497011
 30
0.0
 11
110.0454324814
 21
3.3566497011
 31
0.0
  0
LINE
  5
5D6
330
24F
100
AcDbEntity
  8
ALL_ASSEM_MEMBER
  6
Continuous
 62
     0
100
AcDbLine
 10
110.3604324814
 20
3.3566497011
 30
0.0
 11
137.916294551
 21
3.3566497011
 31
0.0
  0
LINE
  5
5D7
330
24F
100
AcDbEntity
  8
ALL_ASSEM_MEMBER
  6
Continuous
 62
     0
100
AcDbLine
 10
82.2045704118
 20
3.3963550823
 30
0.0
 11
110.0454324814
 21
3.3963550823
 31
0.0
  0
LINE
  5
5D8
330
24F
100
AcDbEntity
  8
ALL_ASSEM_MEMBER
  6
Continuous
 62
     0
100
AcDbLine
 10
110.3604324814
 20
3.3963550823
 30
0.0
 11
137.916294551
 21
3.3963550823
 31
0.0
  0
LINE
  5
5DA
330
24F
100
AcDbEntity
  8
ALL_ASSEM_MEMBER
  6
Continuous
 62
     0
100
AcDbLine
 10
110.3604324814
 20
138.3566497011
 30
0.0
 11
110.1453375621
 21
138.1415547818
 31
0.0
  0
LINE
  5
5DC
330
24F
100
AcDbEntity
  8
ALL_ASSEM_MEMBER
  6
Continuous
 62
     0
100
AcDbLine
 10
110.2872091767
 20
133.7950558333
 30
0.0
 11
110.1453375621
 21
133.6757164849
 31
0.0
  0
LINE
  5
5DD
330
24F
100
AcDbEntity
  8
ALL_ASSEM_MEMBER
  6
Continuous
 62
     0
100
AcDbLine
 10
110.3932751939
 20
133.7058353827
 30
0.0
 11
110.2514035793
 21
133.5864960342
 31
0.0
  0
LWPOLYLINE
  5
5E0
330
24F
100
AcDbEntity
  8
ALL_ASSEM_MEMBER
  6
Continuous
 62
     0
100
AcDbPolyline
 90
        5
 70
     0
 43
0.0
 10
110.2514035793
 20
133.5864960342
 10
110.2214703689
 20
133.565784545
 10
110.1873501111
 20
133.5503185791
 10
110.1503242256
 20
133.5406789764
 10
110.1117832564
 20
133.5372277615
  0
LWPOLYLINE
  5
5E1
330
24F
100
AcDbEntity
  8
ALL_ASSEM_MEMBER
  6
Continuous
 62
     0
100
AcDbPolyline
 90
        4
 70
     0
 43
0.0
 10
110.1453375621
 20
133.6757164849
 10
110.1351120904
 20
133.6690958281
 10
110.1232128884
 20
133.6648969184
 10
110.1104324814
 20
133.6633994167
  0
LINE
  5
5E2
330
24F
100
AcDbEntity
  8
ALL_ASSEM_MEMBER
  6
Continuous
 62
     0
100
AcDbLine
 10
84.0190976619
 20
7.8566497011
 30
0.0
 11
110.0454324814
 21
7.8566497011
 31
0.0
  0
LINE
  5
5E3
330
24F
100
AcDbEntity
  8
ALL_ASSEM_MEMBER
  6
Continuous
 62
     0
100
AcDbLine
 10
110.463985872
 20
7.856649701100054
 30
0.0
 11
136.1017673009
 21
7.8566497011
 31
0.0
  0
LINE
  5
5E4
330
24F
100
AcDbEntity
  8
ALL_ASSEM_MEMBER
  6
Continuous
 62
     0
100
AcDbLine
 10
84.0190976619
 20
7.9828264724
 30
0.0
 11
110.0454324814
 21
7.9828264724
 31
0.0
  0
LINE
  5
5E5
330
24F
100
AcDbEntity
  8
ALL_ASSEM_MEMBER
  6
Continuous
 62
     0
100
AcDbLine
 10
110.463985872
 20
7.982826472400063
 30
0.0
 11
136.1017673009
 21
7.9828264724
 31
0.0
  0
LINE
  5
5E6
330
24F
100
AcDbEntity
  8
ALL_ASSEM_MEMBER
  6
Continuous
 62
     0
100
AcDbLine
 10
47.6104324814
 20
8.1066497011
 30
0.0
 11
77.3510170212
 21
8.1066497011
 31
0.0
  0
LINE
  5
5E7
330
24F
100
AcDbEntity
  8
ALL_ASSEM_MEMBER
  6
Continuous
 62
     0
100
AcDbLine
 10
84.0606178868
 20
8.1066497011
 30
0.0
 11
84.0764449982
 21
8.1066497011
 31
0.0
  0
LINE
  5
5E8
330
24F
100
AcDbEntity
  8
ALL_ASSEM_MEMBER
  6
Continuous
 62
     0
100
AcDbLine
 10
136.0444199646
 20
8.1066497011
 30
0.0
 11
136.060247076
 21
8.1066497011
 31
0.0
  0
LINE
  5
5E9
330
24F
100
AcDbEntity
  8
ALL_ASSEM_MEMBER
  6
Continuous
 62
     0
100
AcDbLine
 10
142.7698479416
 20
8.1066497011
 30
0.0
 11
172.5104324814
 21
8.1066497011
 31
0.0
  0
LINE
  5
5F4
330
24F
100
AcDbEntity
  8
ALL_ASSEM_MEMBER
  6
Continuous
 62
     0
100
AcDbLine
 10
84.0190976619
 20
133.8566497011
 30
0.0
 11
84.0190976619
 21
133.7304729298
 31
0.0
  0
LINE
  5
5F5
330
24F
100
AcDbEntity
  8
ALL_ASSEM_MEMBER
  6
Continuous
 62
     0
100
AcDbLine
 10
84.0190976619
 20
7.8566497011
 30
0.0
 11
84.0190976619
 21
7.9828264724
 31
0.0
  0
LINE
  5
5F7
330
24F
100
AcDbEntity
  8
ALL_ASSEM_MEMBER
  6
Continuous
 62
     0
100
AcDbLine
 10
88.8604324814
 20
80.7331112951
 30
0.0
 11
88.8604324814
 21
85.9801881072
 31
0.0
  0
LINE
  5
5F8
330
24F
100
AcDbEntity
  8
ALL_ASSEM_MEMBER
  6
Continuous
 62
     0
100
AcDbLine
 10
90.2604324814
 20
80.7331112951
 30
0.0
 11
90.2604324814
 21
85.9801881072
 31
0.0
  0
LINE
  5
600
330
24F
100
AcDbEntity
  8
ALL_ASSEM_MEMBER
  6
Continuous
 62
     0
100
AcDbLine
 10
136.1941552541
 20
133.8183813579
 30
0.0
 11
136.1049348035
 21
133.7291609073
 31
0.0
  0
LINE
  5
601
330
24F
100
AcDbEntity
  8
ALL_ASSEM_MEMBER
  6
Continuous
 62
     0
100
AcDbLine
 10
47.0987008246
 20
44.7229269284
 30
0.0
 11
47.1879212752
 21
44.812147379
 31
0.0
  0
LINE
  5
606
330
24F
100
AcDbEntity
  8
ALL_ASSEM_MEMBER
  6
Continuous
 62
     0
100
AcDbLine
 10
136.1941552541
 20
7.8949180444
 30
0.0
 11
136.1049348035
 21
7.984138495
 31
0.0
  0
LINE
  5
609
330
24F
100
AcDbEntity
  8
ALL_ASSEM_MEMBER
  6
Continuous
 62
     0
100
AcDbLine
 10
85.2070288646
 20
10.8361206049
 30
0.0
 11
85.2104302367
 21
10.8566497011
 31
0.0
  0
LINE
  5
60C
330
24F
100
AcDbEntity
  8
ALL_ASSEM_MEMBER
  6
Continuous
 62
     0
100
AcDbLine
 10
134.9273453828
 20
130.8715830684
 30
0.0
 11
134.9152342528
 21
130.8546616721
 31
0.0
  0
LINE
  5
613
330
24F
100
AcDbEntity
  8
ALL_ASSEM_MEMBER
  6
Continuous
 62
     0
100
AcDbLine
 10
134.9273453828
 20
10.8417163338
 30
0.0
 11
134.9152342528
 21
10.8586377302
 31
0.0
  0
LWPOLYLINE
  5
615
330
24F
100
AcDbEntity
  8
ALL_ASSEM_MEMBER
  6
Continuous
 62
     0
100
AcDbPolyline
 90
       15
 70
     0
 43
0.0
 10
82.092100044
 20
138.2475208919
 10
82.0908122694
 20
138.2535916724
 10
82.0915837916
 20
138.2608065434
 10
82.0945755824
 20
138.2687397787
 10
82.0997650349
 20
138.2767984445
 10
82.106896746
 20
138.2843416502
 10
82.1156158196
 20
138.2908785752
 10
82.1254201942
 20
138.2960019163
 10
82.1360091262
 20
138.2995369844
 10
82.1471223208
 20
138.3013061734
 10
82.1578789051
 20
138.3011273802
 10
82.1674094625
 20
138.2991471997
 10
82.1752461871
 20
138.2956767192
 10
82.1810601261
 20
138.2910423543
 10
82.1844879973
 20
138.2857892351
  0
LINE
  5
617
330
24F
100
AcDbEntity
  8
ALL_ASSEM_MEMBER
  6
Continuous
 62
     0
100
AcDbLine
 10
85.2070288646
 20
130.8771787973
 30
0.0
 11
85.2104302367
 21
130.8566497011
 31
0.0
  0
LWPOLYLINE
  5
619
330
24F
100
AcDbEntity
  8
ALL_ASSEM_MEMBER
  6
Continuous
 62
     0
100
AcDbPolyline
 90
       15
 70
     0
 43
0.0
 10
137.9363769655
 20
138.2857892351
 10
137.9397590614
 20
138.2909925193
 10
137.9454062942
 20
138.295548655
 10
137.9531314542
 20
138.2990427839
 10
137.9624992885
 20
138.3010716241
 10
137.9728760217
 20
138.3013625947
 10
137.9836636418
 20
138.2998195827
 10
137.9942191307
 20
138.2965095921
 10
138.004206307
 20
138.2915217571
 10
138.0133155278
 20
138.2849145474
 10
138.0207951556
 20
138.2771820678
 10
138.0261340783
 20
138.269042747
 10
138.0292214792
 20
138.2610473455
 10
138.030055564
 20
138.2536592791
 10
138.0287649187
 20
138.2475208919
  0
LINE
  5
61A
330
24F
100
AcDbEntity
  8
ALL_ASSEM_MEMBER
  6
Continuous
 62
     0
100
AcDbLine
 10
50.0454991141
 20
45.9897367998
 30
0.0
 11
50.0624205105
 21
46.0018479297
 31
0.0
  0
LINE
  5
621
330
24F
100
AcDbEntity
  8
ALL_ASSEM_MEMBER
  6
Continuous
 62
     0
100
AcDbLine
 10
47.0604324814
 20
44.8153148816
 30
0.0
 11
47.1866092527
 21
44.8153148816
 31
0.0
  0
LWPOLYLINE
  5
624
330
24F
100
AcDbEntity
  8
ALL_ASSEM_MEMBER
  6
Continuous
 62
     0
100
AcDbPolyline
 90
       15
 70
     0
 43
0.0
 10
42.6312929474
 20
98.7325941852
 10
42.6260896632
 20
98.7359762811
 10
42.6215335275
 20
98.7416235139
 10
42.6180393987
 20
98.7493486739
 10
42.6160105584
 20
98.7587165082
 10
42.6157195878
 20
98.7690932414
 10
42.6172625998
 20
98.7798808615
 10
42.6205725905
 20
98.7904363505
 10
42.6255604254
 20
98.8004235268
 10
42.6321676352
 20
98.8095327476
 10
42.6399001148
 20
98.8170123753
 10
42.6480394355
 20
98.8223512981
 10
42.656034837
 20
98.8254386989
 10
42.6634229035
 20
98.8262727838
 10
42.6695612907
 20
98.8249821385
  0
LINE
  5
626
330
24F
100
AcDbEntity
  8
ALL_ASSEM_MEMBER
  6
Continuous
 62
     0
100
AcDbLine
 10
50.0454991141
 20
95.7235626025
 30
0.0
 11
50.0624205105
 21
95.7114514726
 31
0.0
  0
LINE
  5
628
330
24F
100
AcDbEntity
  8
ALL_ASSEM_MEMBER
  6
Continuous
 62
     0
100
AcDbLine
 10
110.1104324814
 20
133.6633994167
 30
0.0
 11
110.1117832564
 21
133.5372277615
 31
0.0
  0
LINE
  5
62F
330
24F
100
AcDbEntity
  8
ALL_ASSEM_MEMBER
  6
Continuous
 62
     0
100
AcDbLine
 10
110.0454324814
 20
138.3566497011
 30
0.0
 11
110.0454324814
 21
133.8566497011
 31
0.0
  0
LINE
  5
630
330
24F
100
AcDbEntity
  8
ALL_ASSEM_MEMBER
  6
Continuous
 62
     0
100
AcDbLine
 10
110.0454324814
 20
133.8566497011
 30
0.0
 11
110.0454324814
 21
133.7304729298
 31
0.0
  0
LINE
  5
636
330
24F
100
AcDbEntity
  8
ALL_ASSEM_MEMBER
  6
Continuous
 62
     0
100
AcDbLine
 10
110.1117832564
 20
130.8566497011
 30
0.0
 11
110.1117832564
 21
133.5372277615
 31
0.0
  0
LINE
  5
63B
330
24F
100
AcDbEntity
  8
ALL_ASSEM_MEMBER
  6
Continuous
 62
     0
100
AcDbLine
 10
110.3604324814
 20
138.31694432
 30
0.0
 11
110.3604324814
 21
138.3566497011
 31
0.0
  0
LINE
  5
63F
330
24F
100
AcDbEntity
  8
ALL_ASSEM_MEMBER
  6
Continuous
 62
     0
100
AcDbLine
 10
83.9267097087
 20
7.8949180444
 30
0.0
 11
82.092100044
 21
3.4657785104
 31
0.0
  0
LINE
  5
640
330
24F
100
AcDbEntity
  8
ALL_ASSEM_MEMBER
  6
Continuous
 62
     0
100
AcDbLine
 10
136.1017673009
 20
133.8566497011
 30
0.0
 11
137.9363769655
 21
138.2857892351
 31
0.0
  0
LINE
  5
641
330
24F
100
AcDbEntity
  8
ALL_ASSEM_MEMBER
  6
Continuous
 62
     0
100
AcDbLine
 10
85.19351958
 20
10.8417163338
 30
0.0
 11
84.0116464529
 21
7.9884222013
 31
0.0
  0
LINE
  5
642
330
24F
100
AcDbEntity
  8
ALL_ASSEM_MEMBER
  6
Continuous
 62
     0
100
AcDbLine
 10
134.9138360981
 20
130.8771787973
 30
0.0
 11
136.0957092253
 21
133.7304729298
 31
0.0
  0
LINE
  5
647
330
24F
100
AcDbEntity
  8
ALL_ASSEM_MEMBER
  6
Continuous
 62
     0
100
AcDbLine
 10
85.2070288646
 20
10.8361206049
 30
0.0
 11
84.0251557375
 21
7.9828264724
 31
0.0
  0
LINE
  5
648
330
24F
100
AcDbEntity
  8
ALL_ASSEM_MEMBER
  6
Continuous
 62
     0
100
AcDbLine
 10
134.9273453828
 20
130.8715830684
 30
0.0
 11
136.1092185099
 21
133.7248772009
 31
0.0
  0
LINE
  5
649
330
24F
100
AcDbEntity
  8
ALL_ASSEM_MEMBER
  6
Continuous
 62
     0
100
AcDbLine
 10
82.1844879973
 20
3.4275101672
 30
0.0
 11
84.0190976619
 21
7.8566497011
 31
0.0
  0
LINE
  5
64A
330
24F
100
AcDbEntity
  8
ALL_ASSEM_MEMBER
  6
Continuous
 62
     0
100
AcDbLine
 10
136.1941552541
 20
133.8183813579
 30
0.0
 11
138.0287649187
 21
138.2475208919
 31
0.0
  0
LINE
  5
64E
330
24F
100
AcDbEntity
  8
ALL_ASSEM_MEMBER
  6
Continuous
 62
     0
100
AcDbLine
 10
170.0809615776
 20
46.0032460844
 30
0.0
 11
170.0604324814
 21
46.0066474564
 31
0.0
  0
LINE
  5
651
330
24F
100
AcDbEntity
  8
ALL_ASSEM_MEMBER
  6
Continuous
 62
     0
100
AcDbLine
 10
136.1017673009
 20
7.8566497011
 30
0.0
 11
137.9363769655
 21
3.4275101672
 31
0.0
  0
LINE
  5
652
330
24F
100
AcDbEntity
  8
ALL_ASSEM_MEMBER
  6
Continuous
 62
     0
100
AcDbLine
 10
83.9267097087
 20
133.8183813579
 30
0.0
 11
82.092100044
 21
138.2475208919
 31
0.0
  0
LINE
  5
653
330
24F
100
AcDbEntity
  8
ALL_ASSEM_MEMBER
  6
Continuous
 62
     0
100
AcDbLine
 10
134.9138360981
 20
10.8361206049
 30
0.0
 11
136.0957092253
 21
7.9828264724
 31
0.0
  0
LINE
  5
654
330
24F
100
AcDbEntity
  8
ALL_ASSEM_MEMBER
  6
Continuous
 62
     0
100
AcDbLine
 10
85.19351958
 20
130.8715830684
 30
0.0
 11
84.0116464529
 21
133.7248772009
 31
0.0
  0
LINE
  5
659
330
24F
100
AcDbEntity
  8
ALL_ASSEM_MEMBER
  6
Continuous
 62
     0
100
AcDbLine
 10
134.9273453828
 20
10.8417163338
 30
0.0
 11
136.1092185099
 21
7.9884222013
 31
0.0
  0
LINE
  5
65A
330
24F
100
AcDbEntity
  8
ALL_ASSEM_MEMBER
  6
Continuous
 62
     0
100
AcDbLine
 10
85.2070288646
 20
130.8771787973
 30
0.0
 11
84.0251557375
 21
133.7304729298
 31
0.0
  0
LINE
  5
65B
330
24F
100
AcDbEntity
  8
ALL_ASSEM_MEMBER
  6
Continuous
 62
     0
100
AcDbLine
 10
136.1941552541
 20
7.8949180444
 30
0.0
 11
138.0287649187
 21
3.4657785104
 31
0.0
  0
LINE
  5
65C
330
24F
100
AcDbEntity
  8
ALL_ASSEM_MEMBER
  6
Continuous
 62
     0
100
AcDbLine
 10
84.0190976619
 20
133.8566497011
 30
0.0
 11
82.1844879973
 21
138.2857892351
 31
0.0
  0
LINE
  5
65D
330
24F
100
AcDbEntity
  8
ALL_ASSEM_MEMBER
  6
Continuous
 62
     0
100
AcDbLine
 10
102.848084553
 20
110.6081532873
 30
0.0
 11
102.8481818973
 21
110.6076012208
 31
0.0
  0
LINE
  5
661
330
24F
100
AcDbEntity
  8
ALL_ASSEM_MEMBER
  6
Continuous
 62
     0
100
AcDbLine
 10
47.0604324814
 20
44.8153148816
 30
0.0
 11
42.6312929474
 21
42.980705217
 31
0.0
  0
LINE
  5
662
330
24F
100
AcDbEntity
  8
ALL_ASSEM_MEMBER
  6
Continuous
 62
     0
100
AcDbLine
 10
173.0221641382
 20
96.9903724739
 30
0.0
 11
177.4513036721
 21
98.8249821385
 31
0.0
  0
LINE
  5
663
330
24F
100
AcDbEntity
  8
ALL_ASSEM_MEMBER
  6
Continuous
 62
     0
100
AcDbLine
 10
50.0399033852
 20
46.0032460844
 30
0.0
 11
47.1866092527
 21
44.8213729573
 31
0.0
  0
LINE
  5
664
330
24F
100
AcDbEntity
  8
ALL_ASSEM_MEMBER
  6
Continuous
 62
     0
100
AcDbLine
 10
170.0753658487
 20
95.7235626025
 30
0.0
 11
172.9286599812
 21
96.9054357296
 31
0.0
  0
LINE
  5
669
330
24F
100
AcDbEntity
  8
ALL_ASSEM_MEMBER
  6
Continuous
 62
     0
100
AcDbLine
 10
50.0454991141
 20
45.9897367998
 30
0.0
 11
47.1922049816
 21
44.8078636727
 31
0.0
  0
LINE
  5
66A
330
24F
100
AcDbEntity
  8
ALL_ASSEM_MEMBER
  6
Continuous
 62
     0
100
AcDbLine
 10
170.0809615776
 20
95.7100533179
 30
0.0
 11
172.9342557101
 21
96.891926445
 31
0.0
  0
LINE
  5
66B
330
24F
100
AcDbEntity
  8
ALL_ASSEM_MEMBER
  6
Continuous
 62
     0
100
AcDbLine
 10
42.6695612907
 20
42.8883172638
 30
0.0
 11
47.0987008246
 21
44.7229269284
 31
0.0
  0
LINE
  5
66C
330
24F
100
AcDbEntity
  8
ALL_ASSEM_MEMBER
  6
Continuous
 62
     0
100
AcDbLine
 10
173.0604324814
 20
96.8979845206
 30
0.0
 11
177.4895720154
 21
98.7325941852
 31
0.0
  0
LWPOLYLINE
  5
66D
330
24F
100
AcDbEntity
  8
ALL_ASSEM_MEMBER
  6
Continuous
 62
     0
100
AcDbPolyline
 90
       15
 70
     0
 43
0.0
 10
42.6695612907
 20
42.8883172638
 10
42.6634905102
 20
42.8870294892
 10
42.6562756391
 20
42.8878010113
 10
42.6483424039
 20
42.8907928022
 10
42.640283738
 20
42.8959822546
 10
42.6327405323
 20
42.9031139657
 10
42.6262036073
 20
42.9118330393
 10
42.6210802663
 20
42.9216374139
 10
42.6175451981
 20
42.9322263459
 10
42.6157760091
 20
42.9433395406
 10
42.6159548024
 20
42.9540961248
 10
42.6179349828
 20
42.9636266822
 10
42.6214054633
 20
42.9714634069
 10
42.6260398282
 20
42.9772773458
 10
42.6312929474
 20
42.980705217
  0
LINE
  5
66E
330
24F
100
AcDbEntity
  8
ALL_ASSEM_MEMBER
  6
Continuous
 62
     0
100
AcDbLine
 10
50.0399033852
 20
46.0032460844
 30
0.0
 11
50.0604324814
 21
46.0066474564
 31
0.0
  0
LINE
  5
66F
330
24F
100
AcDbEntity
  8
ALL_ASSEM_MEMBER
  6
Continuous
 62
     0
100
AcDbLine
 10
148.7907806823
 20
59.3566497011
 30
0.0
 11
172.9342557101
 21
59.3566497011
 31
0.0
  0
LINE
  5
673
330
24F
100
AcDbEntity
  8
ALL_ASSEM_MEMBER
  6
Continuous
 62
     0
100
AcDbLine
 10
172.9342557101
 20
59.5666497011
 30
0.0
 11
148.8508423786929
 21
59.5666497011
 31
0.0
  0
LINE
  5
676
330
24F
100
AcDbEntity
  8
ALL_ASSEM_MEMBER
  6
Continuous
 62
     0
100
AcDbLine
 10
192.5504324814
 20
63.0566497011
 30
0.0
 11
186.0804324814
 21
63.0566497011
 31
0.0
  0
LINE
  5
677
330
24F
100
AcDbEntity
  8
ALL_ASSEM_MEMBER
  6
Continuous
 62
     0
100
AcDbLine
 10
192.5504324814
 20
63.1566497011
 30
0.0
 11
184.8104324814
 21
63.1566497011
 31
0.0
  0
LINE
  5
679
330
24F
100
AcDbEntity
  8
ALL_ASSEM_MEMBER
  6
Continuous
 62
     0
100
AcDbLine
 10
187.5604324814
 20
63.3566497011
 30
0.0
 11
177.5604324814
 21
63.3566497011
 31
0.0
  0
LINE
  5
67B
330
24F
100
AcDbEntity
  8
ALL_ASSEM_MEMBER
  6
Continuous
 62
     7
100
AcDbLine
 10
192.8104324814
 20
63.6066497011
 30
0.0
 11
207.8104324814
 21
63.6066497011
 31
0.0
  0
LINE
  5
67C
330
24F
100
AcDbEntity
  8
ALL_ASSEM_MEMBER
  6
Continuous
 62
     9
100
AcDbLine
 10
192.8104324814
 20
64.1066497011
 30
0.0
 11
195.8104324814
 21
64.1066497011
 31
0.0
  0
LINE
  5
67D
330
24F
100
AcDbEntity
  8
ALL_ASSEM_MEMBER
  6
Continuous
 62
     9
100
AcDbLine
 10
207.8104324814
 20
64.4066497011
 30
0.0
 11
195.8104324814
 21
64.4066497011
 31
0.0
  0
LINE
  5
680
330
24F
100
AcDbEntity
  8
ALL_ASSEM_MEMBER
  6
Continuous
 62
     0
100
AcDbLine
 10
42.6312929474
 20
98.7325941852
 30
0.0
 11
47.0604324814
 21
96.8979845206
 31
0.0
  0
LINE
  5
681
330
24F
100
AcDbEntity
  8
ALL_ASSEM_MEMBER
  6
Continuous
 62
     0
100
AcDbLine
 10
173.0221641382
 20
44.7229269284
 30
0.0
 11
177.4513036721
 21
42.8883172638
 31
0.0
  0
LINE
  5
682
330
24F
100
AcDbEntity
  8
ALL_ASSEM_MEMBER
  6
Continuous
 62
     0
100
AcDbLine
 10
50.0399033852
 20
95.7100533179
 30
0.0
 11
47.1866092527
 21
96.891926445
 31
0.0
  0
LINE
  5
683
330
24F
100
AcDbEntity
  8
ALL_ASSEM_MEMBER
  6
Continuous
 62
     0
100
AcDbLine
 10
170.0753658487
 20
45.9897367998
 30
0.0
 11
172.9286599812
 21
44.8078636727
 31
0.0
  0
LINE
  5
688
330
24F
100
AcDbEntity
  8
ALL_ASSEM_MEMBER
  6
Continuous
 62
     0
100
AcDbLine
 10
50.0454991141
 20
95.7235626025
 30
0.0
 11
47.1922049816
 21
96.9054357296
 31
0.0
  0
LINE
  5
689
330
24F
100
AcDbEntity
  8
ALL_ASSEM_MEMBER
  6
Continuous
 62
     0
100
AcDbLine
 10
170.0809615776
 20
46.0032460844
 30
0.0
 11
172.9342557101
 21
44.8213729573
 31
0.0
  0
LINE
  5
68A
330
24F
100
AcDbEntity
  8
ALL_ASSEM_MEMBER
  6
Continuous
 62
     0
100
AcDbLine
 10
47.0987008246
 20
96.9903724739
 30
0.0
 11
42.6695612907
 21
98.8249821385
 31
0.0
  0
LINE
  5
68B
330
24F
100
AcDbEntity
  8
ALL_ASSEM_MEMBER
  6
Continuous
 62
     0
100
AcDbLine
 10
173.0604324814
 20
44.8153148816
 30
0.0
 11
177.4895720154
 21
42.980705217
 31
0.0
  0
LINE
  5
68D
330
24F
100
AcDbEntity
  8
ALL_ASSEM_MEMBER
  6
Continuous
 62
     0
100
AcDbLine
 10
134.9138360981
 20
130.8771787973
 30
0.0
 11
134.9104347261
 21
130.8566497011
 31
0.0
  0
LWPOLYLINE
  5
68F
330
24F
100
AcDbEntity
  8
ALL_ASSEM_MEMBER
  6
Continuous
 62
     0
100
AcDbPolyline
 90
       15
 70
     0
 43
0.0
 10
82.1844879973
 20
3.4275101672
 10
82.1811059014
 20
3.4223068829
 10
82.1754586686
 20
3.4177507473
 10
82.1677335086
 20
3.4142566184
 10
82.1583656743
 20
3.4122277781
 10
82.1479889411
 20
3.4119368075
 10
82.137201321
 20
3.4134798196
 10
82.126645832
 20
3.4167898102
 10
82.1166586558
 20
3.4217776451
 10
82.107549435
 20
3.4283848549
 10
82.1000698072
 20
3.4361173345
 10
82.0947308845
 20
3.4442566552
 10
82.0916434836
 20
3.4522520567
 10
82.0908093988
 20
3.4596401232
 10
82.092100044
 20
3.4657785104
  0
LWPOLYLINE
  5
692
330
24F
100
AcDbEntity
  8
ALL_ASSEM_MEMBER
  6
Continuous
 62
     7
100
AcDbPolyline
 90
       25
 70
     0
 43
0.0
 10
188.7104328219
 20
70.356658542
 10
189.139767191
 20
70.3644275019
 10
189.5941353459
 20
70.3890382623
 10
190.0597753527
 20
70.4309329179
 10
190.5317304719
 20
70.4898409848
 10
191.0052183736
 20
70.5649167741
 10
191.4757666148
 20
70.6548122806
 10
191.9390896337
 20
70.7577528123
 10
192.3909499641
 20
70.8716053396
 10
192.8252477985
 20
70.9933347379
 10
193.2345804392
 20
71.1190016616
 10
193.6125863861
 20
71.2444749434
 10
193.9553566383
 20
71.3661467475
 10
194.2630289197
 20
71.4818866673
 10
194.5364555208
 20
71.5900898987
 10
194.7766317516
 20
71.6894686911
 10
194.9847131009
 20
71.7790382085
 10
195.162054731
 20
71.8581093663
 10
195.3102499707
 20
71.9262967747
 10
195.4313195621
 20
71.9836013699
 10
195.5273680326
 20
72.0302398255
 10
195.6003002219
 20
72.0664850971
 10
195.6517608234
 20
72.0926081706
 10
195.6831133893
 20
72.1088360699
 10
195.6954492641
 20
72.1153311488
  0
LINE
  5
693
330
24F
100
AcDbEntity
  8
ALL_ASSEM_MEMBER
  6
Continuous
 62
     7
100
AcDbLine
 10
207.8104324814
 20
64.9066497011
 30
0.0
 11
195.8104324814
 21
64.9066497011
 31
0.0
  0
LINE
  5
694
330
24F
100
AcDbEntity
  8
ALL_ASSEM_MEMBER
  6
Continuous
 62
     7
100
AcDbLine
 10
207.8104324814
 20
66.6066497011
 30
0.0
 11
208.3104324814
 21
66.6066497011
 31
0.0
  0
LINE
  5
695
330
24F
100
AcDbEntity
  8
ALL_ASSEM_MEMBER
  6
Continuous
 62
     7
100
AcDbLine
 10
208.3104324814
 20
66.6566497011
 30
0.0
 11
210.8104324814
 21
66.6566497011
 31
0.0
  0
LINE
  5
696
330
24F
100
AcDbEntity
  8
ALL_ASSEM_MEMBER
  6
Continuous
 62
     9
100
AcDbLine
 10
207.8104324814
 20
66.9066497011
 30
0.0
 11
208.3104324814
 21
66.9066497011
 31
0.0
  0
LINE
  5
698
330
24F
100
AcDbEntity
  8
ALL_ASSEM_MEMBER
  6
Continuous
 62
     7
100
AcDbLine
 10
197.4354324814
 20
69.5607204868
 30
0.0
 11
198.5854324814
 21
69.5607204868
 31
0.0
  0
LINE
  5
699
330
24F
100
AcDbEntity
  8
ALL_ASSEM_MEMBER
  6
Continuous
 62
     7
100
AcDbLine
 10
210.8104324814
 20
70.1930660998
 30
0.0
 11
211.3104324814
 21
70.1930660998
 31
0.0
  0
LINE
  5
69A
330
24F
100
AcDbEntity
  8
ALL_ASSEM_MEMBER
  6
Continuous
 62
     0
100
AcDbLine
 10
187.8104324814
 20
70.356658542
 30
0.0
 11
188.7104324814
 21
70.356658542
 31
0.0
  0
LINE
  5
69B
330
24F
100
AcDbEntity
  8
ALL_ASSEM_MEMBER
  6
Continuous
 62
     0
100
AcDbLine
 10
69.66071094770624
 20
70.7066497011
 30
0.0
 11
49.9604324814
 21
70.7066497011
 31
0.0
  0
LINE
  5
69C
330
24F
100
AcDbEntity
  8
ALL_ASSEM_MEMBER
  6
Continuous
 62
     7
100
AcDbLine
 10
194.4604324814
 20
70.7379963532
 30
0.0
 11
196.5604324814
 21
70.7379963532
 31
0.0
  0
LINE
  5
69F
330
24F
100
AcDbEntity
  8
ALL_ASSEM_MEMBER
  6
Continuous
 62
     0
100
AcDbLine
 10
47.1866092527
 20
70.8566497011
 30
0.0
 11
69.6604324814
 21
70.8566497011
 31
0.0
  0
LINE
  5
6A1
102
{ACAD_REACTORS
102
}
330
24F
100
AcDbEntity
  8
ALL_ASSEM_MEMBER
  6
Continuous
 62
     7
100
AcDbLine
 10
210.8104324814
 20
70.8566497011
 30
0.0
 11
211.3104324814
 21
70.8566497011
 31
0.0
  0
LINE
  5
6A3
330
24F
100
AcDbEntity
  8
ALL_ASSEM_MEMBER
  6
Continuous
 62
     0
100
AcDbLine
 10
47.1866092527
 20
71.0066497011
 30
0.0
 11
62.5604324814
 21
71.0066497011
 31
0.0
  0
LINE
  5
6A4
330
24F
100
AcDbEntity
  8
ALL_ASSEM_MEMBER
  6
Continuous
 62
     0
100
AcDbLine
 10
188.7104324814
 20
71.3566408603
 30
0.0
 11
187.8104324814
 21
71.3566408603
 31
0.0
  0
LINE
  5
6A5
330
24F
100
AcDbEntity
  8
ALL_ASSEM_MEMBER
  6
Continuous
 62
     7
100
AcDbLine
 10
210.8104324814
 20
71.5202333024
 30
0.0
 11
211.3104324814
 21
71.5202333024
 31
0.0
  0
LINE
  5
6A6
330
24F
100
AcDbEntity
  8
ALL_ASSEM_MEMBER
  6
Continuous
 62
     7
100
AcDbLine
 10
198.5854324814
 20
71.5525789155
 30
0.0
 11
197.4354324814
 21
71.5525789155
 31
0.0
  0
LWPOLYLINE
  5
6A9
330
24F
100
AcDbEntity
  8
ALL_ASSEM_MEMBER
  6
Continuous
 62
     0
100
AcDbPolyline
 90
       15
 70
     0
 43
0.0
 10
138.0287649187
 20
3.4657785104
 10
138.0300526934
 20
3.4597077299
 10
138.0292811712
 20
3.4524928589
 10
138.0262893804
 20
3.4445596236
 10
138.0210999279
 20
3.4365009578
 10
138.0139682168
 20
3.428957752
 10
138.0052491432
 20
3.422420827
 10
137.9954447686
 20
3.417297486
 10
137.9848558366
 20
3.4137624178
 10
137.973742642
 20
3.4119932289
 10
137.9629860577
 20
3.4121720221
 10
137.9534555003
 20
3.4141522025
 10
137.9456187756
 20
3.4176226831
 10
137.9398048367
 20
3.4222570479
 10
137.9363769655
 20
3.4275101672
  0
LINE
  5
6AB
330
24F
100
AcDbEntity
  8
ALL_ASSEM_MEMBER
  6
Continuous
 62
     0
100
AcDbLine
 10
134.9138360981
 20
10.8361206049
 30
0.0
 11
134.9104347261
 21
10.8566497011
 31
0.0
  0
LINE
  5
6AD
330
24F
100
AcDbEntity
  8
ALL_ASSEM_MEMBER
  6
Continuous
 62
     0
100
AcDbLine
 10
129.8604324814
 20
60.9801881072
 30
0.0
 11
129.8604324814
 21
55.7331112951
 31
0.0
  0
LINE
  5
6AE
330
24F
100
AcDbEntity
  8
ALL_ASSEM_MEMBER
  6
Continuous
 62
     0
100
AcDbLine
 10
131.2604324814
 20
60.9801881072
 30
0.0
 11
131.2604324814
 21
55.7331112951
 31
0.0
  0
LINE
  5
6B2
330
24F
100
AcDbEntity
  8
ALL_ASSEM_MEMBER
  6
Continuous
 62
     0
100
AcDbLine
 10
85.19351958
 20
10.8417163338
 30
0.0
 11
85.2056307099
 21
10.8586377302
 31
0.0
  0
LINE
  5
6B4
330
24F
100
AcDbEntity
  8
ALL_ASSEM_MEMBER
  6
Continuous
 62
     0
100
AcDbLine
 10
170.0753658487
 20
95.7235626025
 30
0.0
 11
170.0584444523
 21
95.7114514726
 31
0.0
  0
LINE
  5
6B6
330
24F
100
AcDbEntity
  8
ALL_ASSEM_MEMBER
  6
Continuous
 62
     7
100
AcDbLine
 10
196.5604324814
 20
74.3753030491
 30
0.0
 11
194.4604324814
 21
74.3753030491
 31
0.0
  0
LINE
  5
6B7
330
24F
100
AcDbEntity
  8
ALL_ASSEM_MEMBER
  6
Continuous
 62
     9
100
AcDbLine
 10
207.8104324814
 20
74.8066497011
 30
0.0
 11
208.3104324814
 21
74.8066497011
 31
0.0
  0
LINE
  5
6B8
330
24F
100
AcDbEntity
  8
ALL_ASSEM_MEMBER
  6
Continuous
 62
     7
100
AcDbLine
 10
208.3104324814
 20
75.0566497011
 30
0.0
 11
210.8104324814
 21
75.0566497011
 31
0.0
  0
LINE
  5
6B9
330
24F
100
AcDbEntity
  8
ALL_ASSEM_MEMBER
  6
Continuous
 62
     7
100
AcDbLine
 10
207.8104324814
 20
75.1066497011
 30
0.0
 11
208.3104324814
 21
75.1066497011
 31
0.0
  0
LINE
  5
6BA
330
24F
100
AcDbEntity
  8
ALL_ASSEM_MEMBER
  6
Continuous
 62
     7
100
AcDbLine
 10
207.8104324814
 20
76.8066497011
 30
0.0
 11
195.8104324814
 21
76.8066497011
 31
0.0
  0
LINE
  5
6BB
330
24F
100
AcDbEntity
  8
ALL_ASSEM_MEMBER
  6
Continuous
 62
     9
100
AcDbLine
 10
207.8104324814
 20
77.3066497011
 30
0.0
 11
195.8104324814
 21
77.3066497011
 31
0.0
  0
LINE
  5
6BD
330
24F
100
AcDbEntity
  8
ALL_ASSEM_MEMBER
  6
Continuous
 62
     9
100
AcDbLine
 10
192.8104324814
 20
77.6066497011
 30
0.0
 11
195.8104324814
 21
77.6066497011
 31
0.0
  0
LINE
  5
6BE
330
24F
100
AcDbEntity
  8
ALL_ASSEM_MEMBER
  6
Continuous
 62
     7
100
AcDbLine
 10
192.8104324814
 20
78.1066497011
 30
0.0
 11
207.8104324814
 21
78.1066497011
 31
0.0
  0
LINE
  5
6BF
330
24F
100
AcDbEntity
  8
ALL_ASSEM_MEMBER
  6
Continuous
 62
     0
100
AcDbLine
 10
187.5604324814
 20
78.3566497011
 30
0.0
 11
177.5604324814
 21
78.3566497011
 31
0.0
  0
LINE
  5
6C2
330
24F
100
AcDbEntity
  8
ALL_ASSEM_MEMBER
  6
Continuous
 62
     0
100
AcDbLine
 10
184.8104324814
 20
78.5566497011
 30
0.0
 11
192.5504324814
 21
78.5566497011
 31
0.0
  0
LINE
  5
6C3
330
24F
100
AcDbEntity
  8
ALL_ASSEM_MEMBER
  6
Continuous
 62
     0
100
AcDbLine
 10
186.0804324814
 20
78.6566497011
 30
0.0
 11
192.5504324814
 21
78.6566497011
 31
0.0
  0
LWPOLYLINE
  5
6C6
330
24F
100
AcDbEntity
  8
ALL_ASSEM_MEMBER
  6
Continuous
 62
     0
100
AcDbPolyline
 90
       15
 70
     0
 43
0.0
 10
177.4895720154
 20
42.980705217
 10
177.4947752996
 20
42.9773231211
 10
177.4993314352
 20
42.9716758884
 10
177.5028255641
 20
42.9639507283
 10
177.5048544044
 20
42.954582894
 10
177.505145375
 20
42.9442061608
 10
177.5036023629
 20
42.9334185408
 10
177.5002923723
 20
42.9228630518
 10
177.4953045374
 20
42.9128758755
 10
177.4886973276
 20
42.9037666547
 10
177.480964848
 20
42.8962870269
 10
177.4728255273
 20
42.8909481042
 10
177.4648301258
 20
42.8878607033
 10
177.4574420593
 20
42.8870266185
 10
177.4513036721
 20
42.8883172638
  0
LINE
  5
6C8
330
24F
100
AcDbEntity
  8
ALL_ASSEM_MEMBER
  6
Continuous
 62
     0
100
AcDbLine
 10
170.0753658487
 20
45.9897367998
 30
0.0
 11
170.0584444523
 21
46.0018479297
 31
0.0
  0
LINE
  5
6CA
330
24F
100
AcDbEntity
  8
ALL_ASSEM_MEMBER
  6
Continuous
 62
     0
100
AcDbLine
 10
85.19351958
 20
130.8715830684
 30
0.0
 11
85.2056307099
 21
130.8546616721
 31
0.0
  0
LINE
  5
6CD
330
24F
100
AcDbEntity
  8
ALL_ASSEM_MEMBER
  6
Continuous
 62
     0
100
AcDbLine
 10
136.1017673009
 20
133.8566497011
 30
0.0
 11
136.1017673009
 21
133.7304729298
 31
0.0
  0
LINE
  5
6CE
330
24F
100
AcDbEntity
  8
ALL_ASSEM_MEMBER
  6
Continuous
 62
     0
100
AcDbLine
 10
136.1017673009
 20
7.8566497011
 30
0.0
 11
136.1017673009
 21
7.9828264724
 31
0.0
  0
LINE
  5
6D4
330
24F
100
AcDbEntity
  8
ALL_ASSEM_MEMBER
  6
Continuous
 62
     0
100
AcDbLine
 10
83.9267097087
 20
7.8949180444
 30
0.0
 11
84.0159301593
 21
7.984138495
 31
0.0
  0
LINE
  5
6D9
330
24F
100
AcDbEntity
  8
ALL_ASSEM_MEMBER
  6
Continuous
 62
     0
100
AcDbLine
 10
172.9342557101
 20
82.1466497011
 30
0.0
 11
148.8508423786929
 21
82.1466497011
 31
0.0
  0
LINE
  5
6DB
330
24F
100
AcDbEntity
  8
ALL_ASSEM_MEMBER
  6
Continuous
 62
     0
100
AcDbLine
 10
148.7907806823
 20
82.3566497011
 30
0.0
 11
172.9342557101
 21
82.3566497011
 31
0.0
  0
LINE
  5
6DC
330
24F
100
AcDbEntity
  8
ALL_ASSEM_MEMBER
  6
Continuous
 62
     0
100
AcDbLine
 10
50.0399033852
 20
95.7100533179
 30
0.0
 11
50.0604324814
 21
95.7066519459
 31
0.0
  0
LINE
  5
6E0
330
24F
100
AcDbEntity
  8
ALL_ASSEM_MEMBER
  6
Continuous
 62
     0
100
AcDbLine
 10
83.9267097087
 20
133.8183813579
 30
0.0
 11
84.0159301593
 21
133.7291609073
 31
0.0
  0
LWPOLYLINE
  5
6E8
330
24F
100
AcDbEntity
  8
ALL_ASSEM_MEMBER
  6
Continuous
 62
     0
100
AcDbPolyline
 90
       15
 70
     0
 43
0.0
 10
177.4513036721
 20
98.8249821385
 10
177.4573744526
 20
98.8262699131
 10
177.4645893236
 20
98.8254983909
 10
177.4725225589
 20
98.8225066001
 10
177.4805812248
 20
98.8173171477
 10
177.4881244305
 20
98.8101854365
 10
177.4946613555
 20
98.801466363
 10
177.4997846965
 20
98.7916619883
 10
177.5033197647
 20
98.7810730563
 10
177.5050889537
 20
98.7699598617
 10
177.5049101604
 20
98.7592032774
 10
177.50292998
 20
98.7496727201
 10
177.4994594995
 20
98.7418359954
 10
177.4948251346
 20
98.7360220564
 10
177.4895720154
 20
98.7325941852
  0
LINE
  5
6EA
330
24F
100
AcDbEntity
  8
ALL_ASSEM_MEMBER
  6
Continuous
 62
     0
100
AcDbLine
 10
170.0809615776
 20
95.7100533179
 30
0.0
 11
170.0604324814
 21
95.7066519459
 31
0.0
  0
LWPOLYLINE
  5
6F7
330
24F
100
AcDbEntity
  8
ALL_ASSEM_MEMBER
  6
Continuous
 62
     7
100
AcDbPolyline
 90
       20
 70
     0
 43
0.0
 10
195.2254687093
 20
72.9979964666
 10
195.2440734824
 20
73.0074053381
 10
195.2924408226
 20
73.0275788737
 10
195.3425540498
 20
73.0425538046
 10
195.3940182336
 20
73.0522102998
 10
195.4462089743
 20
73.0564454737
 10
195.4984968155
 20
73.055194172
 10
195.5504692108
 20
73.0484680091
 10
195.6013400127
 20
73.0363839218
 10
195.6506520691
 20
73.019045133
 10
195.6980157739
 20
72.9965905531
 10
195.7426624882
 20
72.9693792495
 10
195.7842377527
 20
72.9376242679
 10
195.822331091
 20
72.9016508431
 10
195.8563935829
 20
72.8619562469
 10
195.886156427
 20
72.8188526021
 10
195.9112414273
 20
72.772913798
 10
195.9313603061
 20
72.7246425028
 10
195.9463565889
 20
72.6744212903
 10
195.9560018425
 20
72.6230651233
  0
LINE
  5
6F8
330
24F
100
AcDbEntity
  8
ALL_ASSEM_MEMBER
  6
Continuous
 62
     7
100
AcDbLine
 10
195.7055585858
 20
72.1208626838
 30
0.0
 11
195.695232432
 21
72.1157708837
 31
0.0
  0
LWPOLYLINE
  5
701
330
24F
100
AcDbEntity
  8
ALL_ASSEM_MEMBER
  6
Continuous
 62
     7
100
AcDbPolyline
 90
       24
 70
     0
 43
0.0
 10
195.2254687093
 20
72.9979964666
 10
195.2189972784
 20
72.9945988388
 10
195.1925952219
 20
72.9809519327
 10
195.1451160372
 20
72.9568964183
 10
195.0751192531
 20
72.9222082922
 10
194.980812704
 20
72.8765975779
 10
194.8600773705
 20
72.8197543765
 10
194.7105781834
 20
72.7514453252
 10
194.5302213839
 20
72.6717566273
 10
194.3173416416
 20
72.5811821126
 10
194.0704869056
 20
72.4805414043
 10
193.7881713654
 20
72.3709071812
 10
193.4689172615
 20
72.2536640552
 10
193.1113699461
 20
72.1306137482
 10
192.7175656044
 20
72.0050261321
 10
192.2952428249
 20
71.8818812346
 10
191.8542606214
 20
71.766143508
 10
191.4039227523
 20
71.6617298884
 10
190.9483997707
 20
71.5706654492
 10
190.4908470183
 20
71.4944328312
 10
190.0343942622
 20
71.4342219204
 10
189.5820912252
 20
71.3909162017
 10
189.1370503088
 20
71.3650185183
 10
188.7104322082
 20
71.3566408603
  0
LINE
  5
706
330
24F
100
AcDbEntity
  8
ALL_ASSEM_MEMBER
  6
Continuous
 62
     0
100
AcDbLine
 10
170.0809615776
 20
95.7100533179
 30
0.0
 11
170.0809615776
 21
82.3566497011
 31
0.0
  0
LINE
  5
707
330
24F
100
AcDbEntity
  8
ALL_ASSEM_MEMBER
  6
Continuous
 62
     0
100
AcDbLine
 10
170.0809615776
 20
59.3566497011
 30
0.0
 11
170.0809615776
 21
46.0032460844
 31
0.0
  0
LINE
  5
70A
330
24F
100
AcDbEntity
  8
ALL_ASSEM_MEMBER
  6
Continuous
 62
     0
100
AcDbLine
 10
172.8104324814
 20
8.4066497011
 30
0.0
 11
172.8104324814
 21
38.1472342409
 31
0.0
  0
LINE
  5
70B
330
24F
100
AcDbEntity
  8
ALL_ASSEM_MEMBER
  6
Continuous
 62
     0
100
AcDbLine
 10
172.8104324814
 20
44.8568351065
 30
0.0
 11
172.8104324814
 21
44.8726622179
 31
0.0
  0
LINE
  5
70C
330
24F
100
AcDbEntity
  8
ALL_ASSEM_MEMBER
  6
Continuous
 62
     0
100
AcDbLine
 10
172.8104324814
 20
96.8406371843
 30
0.0
 11
172.8104324814
 21
96.8564642957
 31
0.0
  0
LINE
  5
70D
330
24F
100
AcDbEntity
  8
ALL_ASSEM_MEMBER
  6
Continuous
 62
     0
100
AcDbLine
 10
172.8104324814
 20
103.5660651613
 30
0.0
 11
172.8104324814
 21
133.3066497011
 31
0.0
  0
LINE
  5
70E
330
24F
100
AcDbEntity
  8
ALL_ASSEM_MEMBER
  6
Continuous
 62
     0
100
AcDbLine
 10
172.9342557101
 20
44.8153148816
 30
0.0
 11
172.9342557101
 21
96.8979845206
 31
0.0
  0
LINE
  5
70F
330
24F
100
AcDbEntity
  8
ALL_ASSEM_MEMBER
  6
Continuous
 62
     0
100
AcDbLine
 10
173.0604324814
 20
44.8153148816
 30
0.0
 11
173.0604324814
 21
96.8979845206
 31
0.0
  0
LINE
  5
710
330
24F
100
AcDbEntity
  8
ALL_ASSEM_MEMBER
  6
Continuous
 62
     0
100
AcDbLine
 10
177.5207271002
 20
43.0007876315
 30
0.0
 11
177.5207271002
 21
98.7125117707
 31
0.0
  0
LINE
  5
711
330
24F
100
AcDbEntity
  8
ALL_ASSEM_MEMBER
  6
Continuous
 62
     0
100
AcDbLine
 10
177.5604324814
 20
43.0007876315
 30
0.0
 11
177.5604324814
 21
98.7125117707
 31
0.0
  0
LINE
  5
712
330
24F
100
AcDbEntity
  8
ALL_ASSEM_MEMBER
  6
Continuous
 62
     0
100
AcDbLine
 10
170.0753658487
 20
45.9897367998
 30
0.0
 11
134.9273453828
 21
10.8417163338
 31
0.0
  0
LINE
  5
713
330
24F
100
AcDbEntity
  8
ALL_ASSEM_MEMBER
  6
Continuous
 62
     0
100
AcDbLine
 10
136.1049348035
 20
7.984138495
 30
0.0
 11
172.9329436875
 21
44.812147379
 31
0.0
  0
LINE
  5
714
330
24F
100
AcDbEntity
  8
ALL_ASSEM_MEMBER
  6
Continuous
 62
     0
100
AcDbLine
 10
136.1941552541
 20
7.8949180444
 30
0.0
 11
173.0221641382
 21
44.7229269284
 31
0.0
  0
LINE
  5
715
330
24F
100
AcDbEntity
  8
ALL_ASSEM_MEMBER
  6
Continuous
 62
     0
100
AcDbLine
 10
134.9152342528
 20
130.8546616721
 30
0.0
 11
170.0584444523
 21
95.7114514726
 31
0.0
  0
LINE
  5
716
330
24F
100
AcDbEntity
  8
ALL_ASSEM_MEMBER
  6
Continuous
 62
     0
100
AcDbLine
 10
134.9273453828
 20
130.8715830684
 30
0.0
 11
170.0753658487
 21
95.7235626025
 31
0.0
  0
LINE
  5
717
330
24F
100
AcDbEntity
  8
ALL_ASSEM_MEMBER
  6
Continuous
 62
     0
100
AcDbLine
 10
172.9329436875
 20
96.9011520233
 30
0.0
 11
136.1049348035
 21
133.7291609073
 31
0.0
  0
LINE
  5
718
330
24F
100
AcDbEntity
  8
ALL_ASSEM_MEMBER
  6
Continuous
 62
     0
100
AcDbLine
 10
173.0221641382
 20
96.9903724739
 30
0.0
 11
136.1941552541
 21
133.8183813579
 31
0.0
  0
LINE
  5
719
330
24F
100
AcDbEntity
  8
ALL_ASSEM_MEMBER
  6
Continuous
 62
     0
100
AcDbLine
 10
184.8104324814
 20
78.5566497011
 30
0.0
 11
184.8104324814
 21
78.3566497011
 31
0.0
  0
LINE
  5
71A
330
24F
100
AcDbEntity
  8
ALL_ASSEM_MEMBER
  6
Continuous
 62
     0
100
AcDbLine
 10
184.8104324814
 20
63.1566497011
 30
0.0
 11
184.8104324814
 21
63.3566497011
 31
0.0
  0
LINE
  5
71B
330
24F
100
AcDbEntity
  8
ALL_ASSEM_MEMBER
  6
Continuous
 62
     0
100
AcDbLine
 10
194.4604324814
 20
74.3753030491
 30
0.0
 11
193.4104324814
 21
72.5566497011
 31
0.0
  0
LINE
  5
71C
330
24F
100
AcDbEntity
  8
ALL_ASSEM_MEMBER
  6
Continuous
 62
     0
100
AcDbLine
 10
138.064995302
 20
3.4579489501
 30
0.0
 11
177.4591332324
 21
42.8520868805
 31
0.0
  0
LINE
  5
71D
330
24F
100
AcDbEntity
  8
ALL_ASSEM_MEMBER
  6
Continuous
 62
     0
100
AcDbLine
 10
138.0930712463
 20
3.4298730058
 30
0.0
 11
177.4872091767
 21
42.8240109362
 31
0.0
  0
LINE
  5
71E
330
24F
100
AcDbEntity
  8
ALL_ASSEM_MEMBER
  6
Continuous
 62
     0
100
AcDbLine
 10
177.4591332324
 20
98.8612125217
 30
0.0
 11
138.064995302
 21
138.2553504522
 31
0.0
  0
LINE
  5
71F
330
24F
100
AcDbEntity
  8
ALL_ASSEM_MEMBER
  6
Continuous
 62
     0
100
AcDbLine
 10
177.4872091767
 20
98.889288466
 30
0.0
 11
138.0930712463
 21
138.2834263964
 31
0.0
  0
LINE
  5
720
330
24F
100
AcDbEntity
  8
ALL_ASSEM_MEMBER
  6
Continuous
 62
     0
100
AcDbLine
 10
193.4104324814
 20
72.5566497011
 30
0.0
 11
193.5649911164
 21
72.2889462926
 31
0.0
  0
LINE
  5
721
330
24F
100
AcDbEntity
  8
ALL_ASSEM_MEMBER
  6
Continuous
 62
     0
100
AcDbLine
 10
194.0723584
 20
71.4101603793
 30
0.0
 11
194.4604324814
 21
70.7379963532
 31
0.0
  0
LINE
  5
724
330
24F
100
AcDbEntity
  8
ALL_ASSEM_MEMBER
  6
Continuous
 62
     0
100
AcDbLine
 10
187.5604310107
 20
63.3566499421
 30
0.0
 11
187.5604297322
 21
78.3566488386
 31
0.0
  0
LINE
  5
725
330
24F
100
AcDbEntity
  8
ALL_ASSEM_MEMBER
  6
Continuous
 62
     0
100
AcDbLine
 10
187.8104324814
 20
63.5166497011
 30
0.0
 11
187.8104324814
 21
78.1966497011
 31
0.0
  0
LINE
  5
728
330
24F
100
AcDbEntity
  8
ALL_ASSEM_MEMBER
  6
Continuous
 62
     0
100
AcDbLine
 10
192.7104324814
 20
78.3966497011
 30
0.0
 11
192.7104324814
 21
72.0029461881
 31
0.0
  0
LINE
  5
729
330
24F
100
AcDbEntity
  8
ALL_ASSEM_MEMBER
  6
Continuous
 62
     0
100
AcDbLine
 10
192.7104324814
 20
70.9611531373
 30
0.0
 11
192.7104324814
 21
63.3166497011
 31
0.0
  0
LINE
  5
72B
330
24F
100
AcDbEntity
  8
ALL_ASSEM_MEMBER
  6
Continuous
 62
     7
100
AcDbLine
 10
196.5604324814
 20
70.7379963532
 30
0.0
 11
197.6104324814
 21
72.5566497011
 31
0.0
  0
LINE
  5
72C
330
24F
100
AcDbEntity
  8
ALL_ASSEM_MEMBER
  6
Continuous
 62
     7
100
AcDbLine
 10
197.4354324814
 20
71.5525789155
 30
0.0
 11
196.8604324814
 21
70.5566497011
 31
0.0
  0
LINE
  5
72D
330
24F
100
AcDbEntity
  8
ALL_ASSEM_MEMBER
  6
Continuous
 62
     7
100
AcDbLine
 10
198.5854324814
 20
69.5607204868
 30
0.0
 11
199.1604324814
 21
70.5566497011
 31
0.0
  0
LWPOLYLINE
  5
72E
330
24F
100
AcDbEntity
  8
ALL_ASSEM_MEMBER
  6
Continuous
 62
     0
100
AcDbPolyline
 90
        5
 70
     0
 43
0.0
 10
110.463985872
 20
133.7304729298
 10
110.4444768398
 20
133.728856629
 10
110.4257175288
 20
133.7240698399
 10
110.4084288487
 20
133.7162965164
 10
110.3932751939
 20
133.7058353827
  0
LWPOLYLINE
  5
72F
330
24F
100
AcDbEntity
  8
ALL_ASSEM_MEMBER
  6
Continuous
 62
     0
100
AcDbPolyline
 90
        5
 70
     0
 43
0.0
 10
110.463985872
 20
133.8566497011
 10
110.4152132915
 20
133.852608949
 10
110.3683150139
 20
133.8406419764
 10
110.3250933137
 20
133.8212086675
 10
110.2872091767
 20
133.7950558333
  0
LINE
  5
737
330
24F
100
AcDbEntity
  8
ALL_ASSEM_MEMBER
  6
Continuous
 62
     0
100
AcDbLine
 10
85.2104302367
 20
130.8566497011
 30
0.0
 11
110.1117832564
 21
130.8566497011
 31
0.0
  0
LINE
  5
738
330
24F
100
AcDbEntity
  8
ALL_ASSEM_MEMBER
  6
Continuous
 62
     0
100
AcDbLine
 10
110.1117832564
 20
130.8566497011
 30
0.0
 11
134.9104347261
 21
130.8566497011
 31
0.0
  0
LINE
  5
739
330
24F
100
AcDbEntity
  8
ALL_ASSEM_MEMBER
  6
Continuous
 62
     0
100
AcDbLine
 10
85.2070288646
 20
130.8771787973
 30
0.0
 11
110.1117832564
 21
130.8771787973
 31
0.0
  0
LINE
  5
73A
330
24F
100
AcDbEntity
  8
ALL_ASSEM_MEMBER
  6
Continuous
 62
     0
100
AcDbLine
 10
110.1117832564
 20
130.8771787973
 30
0.0
 11
134.9138360981
 21
130.8771787973
 31
0.0
  0
LINE
  5
73B
330
24F
100
AcDbEntity
  8
ALL_ASSEM_MEMBER
  6
Continuous
 62
     0
100
AcDbLine
 10
172.5104324814
 20
133.6066497011
 30
0.0
 11
142.7698479416
 21
133.6066497011
 31
0.0
  0
LINE
  5
73C
330
24F
100
AcDbEntity
  8
ALL_ASSEM_MEMBER
  6
Continuous
 62
     0
100
AcDbLine
 10
136.060247076
 20
133.6066497011
 30
0.0
 11
136.0444199646
 21
133.6066497011
 31
0.0
  0
LINE
  5
73D
330
24F
100
AcDbEntity
  8
ALL_ASSEM_MEMBER
  6
Continuous
 62
     0
100
AcDbLine
 10
84.0764449982
 20
133.6066497011
 30
0.0
 11
84.0606178868
 21
133.6066497011
 31
0.0
  0
LINE
  5
73E
330
24F
100
AcDbEntity
  8
ALL_ASSEM_MEMBER
  6
Continuous
 62
     0
100
AcDbLine
 10
77.3510170212
 20
133.6066497011
 30
0.0
 11
47.6104324814
 21
133.6066497011
 31
0.0
  0
LINE
  5
73F
330
24F
100
AcDbEntity
  8
ALL_ASSEM_MEMBER
  6
Continuous
 62
     0
100
AcDbLine
 10
136.1017673009
 20
133.7304729298
 30
0.0
 11
110.463985872
 21
133.7304729298
 31
0.0
  0
LINE
  5
740
330
24F
100
AcDbEntity
  8
ALL_ASSEM_MEMBER
  6
Continuous
 62
     0
100
AcDbLine
 10
110.0454324814
 20
133.7304729298
 30
0.0
 11
84.0190976619
 21
133.7304729298
 31
0.0
  0
LINE
  5
741
330
24F
100
AcDbEntity
  8
ALL_ASSEM_MEMBER
  6
Continuous
 62
     0
100
AcDbLine
 10
136.1017673009
 20
133.8566497011
 30
0.0
 11
110.463985872
 21
133.8566497011
 31
0.0
  0
LINE
  5
742
330
24F
100
AcDbEntity
  8
ALL_ASSEM_MEMBER
  6
Continuous
 62
     0
100
AcDbLine
 10
110.0454324814
 20
133.8566497011
 30
0.0
 11
84.0190976619
 21
133.8566497011
 31
0.0
  0
LINE
  5
743
330
24F
100
AcDbEntity
  8
ALL_ASSEM_MEMBER
  6
Continuous
 62
     7
100
AcDbLine
 10
196.8604324814
 20
70.5566497011
 30
0.0
 11
197.4354324814
 21
69.5607204868
 31
0.0
  0
LINE
  5
744
330
24F
100
AcDbEntity
  8
ALL_ASSEM_MEMBER
  6
Continuous
 62
     7
100
AcDbLine
 10
197.6104324814
 20
72.5566497011
 30
0.0
 11
196.5604324814
 21
74.3753030491
 31
0.0
  0
LINE
  5
745
330
24F
100
AcDbEntity
  8
ALL_ASSEM_MEMBER
  6
Continuous
 62
     7
100
AcDbLine
 10
199.1604324814
 20
70.5566497011
 30
0.0
 11
198.5854324814
 21
71.5525789155
 31
0.0
  0
LWPOLYLINE
  5
746
330
24F
100
AcDbEntity
  8
ALL_ASSEM_MEMBER
  6
Continuous
 62
     7
100
AcDbPolyline
 90
       13
 70
     0
 43
0.0
 10
195.9560018425
 20
72.6230651233
 10
195.9602194197
 20
72.5709815476
 10
195.958975953
 20
72.5185839095
 10
195.9522772287
 20
72.4667185616
 10
195.9401734652
 20
72.4157957782
 10
195.922810411
 20
72.366376395
 10
195.9004018069
 20
72.3191136319
 10
195.8731247845
 20
72.2743793747
 10
195.8413779583
 20
72.2327978824
 10
195.8054716828
 20
72.1947909945
 10
195.7656918129
 20
72.1606575705
 10
195.7226853182
 20
72.1309463955
 10
195.6954492641
 20
72.1153311488
  0
LINE
  5
747
330
24F
100
AcDbEntity
  8
ALL_ASSEM_MEMBER
  6
Continuous
 62
     0
100
AcDbLine
 10
192.8104324814
 20
78.3966497011
 30
0.0
 11
192.8104324814
 21
72.0346421836
 31
0.0
  0
LINE
  5
748
330
24F
100
AcDbEntity
  8
ALL_ASSEM_MEMBER
  6
Continuous
 62
     0
100
AcDbLine
 10
192.8104324814
 20
70.9891821507
 30
0.0
 11
192.8104324814
 21
63.3166497011
 31
0.0
  0
LINE
  5
749
330
24F
100
AcDbEntity
  8
ALL_ASSEM_MEMBER
  6
Continuous
 62
     7
100
AcDbLine
 10
195.8104324814
 20
78.1066497011
 30
0.0
 11
195.8104324814
 21
76.8066497011
 31
0.0
  0
LINE
  5
74A
330
24F
100
AcDbEntity
  8
ALL_ASSEM_MEMBER
  6
Continuous
 62
     7
100
AcDbLine
 10
195.8104324814
 20
64.9066497011
 30
0.0
 11
195.8104324814
 21
63.6066497011
 31
0.0
  0
LINE
  5
74C
330
24F
100
AcDbEntity
  8
ALL_ASSEM_MEMBER
  6
Continuous
 62
     0
100
AcDbLine
 10
110.1104324814
 20
138.1269121483
 30
0.0
 11
110.0454324814
 21
138.1263267887
 31
0.0
  0
LINE
  5
751
330
24F
100
AcDbEntity
  8
ALL_ASSEM_MEMBER
  6
Continuous
 62
     0
100
AcDbLine
 10
137.916294551
 20
138.31694432
 30
0.0
 11
110.3604324814
 21
138.31694432
 31
0.0
  0
LINE
  5
752
330
24F
100
AcDbEntity
  8
ALL_ASSEM_MEMBER
  6
Continuous
 62
     0
100
AcDbLine
 10
110.0454324814
 20
138.31694432
 30
0.0
 11
82.2045704118
 21
138.31694432
 31
0.0
  0
LINE
  5
753
330
24F
100
AcDbEntity
  8
ALL_ASSEM_MEMBER
  6
Continuous
 62
     0
100
AcDbLine
 10
137.916294551
 20
138.3566497011
 30
0.0
 11
110.3604324814
 21
138.3566497011
 31
0.0
  0
LINE
  5
754
330
24F
100
AcDbEntity
  8
ALL_ASSEM_MEMBER
  6
Continuous
 62
     0
100
AcDbLine
 10
110.0454324814
 20
138.3566497011
 30
0.0
 11
82.2045704118
 21
138.3566497011
 31
0.0
  0
LINE
  5
755
330
24F
100
AcDbEntity
  8
ALL_ASSEM_MEMBER
  6
Continuous
 62
     7
100
AcDbLine
 10
207.8104324814
 20
63.6066497011
 30
0.0
 11
207.8104324814
 21
78.1066497011
 31
0.0
  0
LINE
  5
756
330
24F
100
AcDbEntity
  8
ALL_ASSEM_MEMBER
  6
Continuous
 62
     7
100
AcDbLine
 10
208.3104324814
 20
75.1066497011
 30
0.0
 11
208.3104324814
 21
66.6066497011
 31
0.0
  0
LINE
  5
757
330
24F
100
AcDbEntity
  8
ALL_ASSEM_MEMBER
  6
Continuous
 62
     7
100
AcDbLine
 10
210.8104324814
 20
75.0566492631
 30
0.0
 11
210.8104324814
 21
66.6566501391
 31
0.0
  0
LINE
  5
758
330
24F
100
AcDbEntity
  8
ALL_ASSEM_MEMBER
  6
Continuous
 62
     7
100
AcDbLine
 10
211.3104324814
 20
71.5202333024
 30
0.0
 11
211.3104324814
 21
70.1930660998
 31
0.0
  0
ARC
  5
759
330
24F
100
AcDbEntity
  8
ALL_ASSEM_MEMBER
  6
Continuous
 62
     0
100
AcDbCircle
 10
47.8104324814
 20
147.8809133764
 30
0.0
 40
0.5
100
AcDbArc
 50
89.9940876248
 51
180.0080096904
  0
ARC
  5
75A
330
24F
100
AcDbEntity
  8
ALL_ASSEM_MEMBER
  6
Continuous
 62
     0
100
AcDbCircle
 10
42.8104324814
 20
170.4326435332
 30
0.0
 40
0.25
100
AcDbArc
 50
180.0
 51
203.3813839437
  0
ARC
  5
75B
330
24F
100
AcDbEntity
  8
ALL_ASSEM_MEMBER
  6
Continuous
 62
     0
100
AcDbCircle
 10
49.8104324814
 20
153.3602213137
 30
0.0
 40
0.1
100
AcDbArc
 50
0.0
 51
23.3813839437
  0
ARC
  5
75C
330
24F
100
AcDbEntity
  8
ALL_ASSEM_MEMBER
  6
Continuous
 62
     7
100
AcDbCircle
 10
89.5604324814
 20
275.9044517827
 30
0.0
 40
0.7
100
AcDbArc
 50
0.0
 51
180.0000000204
  0
ARC
  5
75D
330
24F
100
AcDbEntity
  8
ALL_ASSEM_MEMBER
  6
Continuous
 62
     0
100
AcDbCircle
 10
42.8104324814
 20
264.3074879048
 30
0.0
 40
0.25
100
AcDbArc
 50
147.2647737279
 51
180.0
  0
ARC
  5
75E
330
24F
100
AcDbEntity
  8
ALL_ASSEM_MEMBER
  6
Continuous
 62
     0
100
AcDbCircle
 10
91.1104324814
 20
271.3809133764
 30
0.0
 40
0.2
100
AcDbArc
 50
0.0
 51
90.0
  0
ARC
  5
75F
330
24F
100
AcDbEntity
  8
ALL_ASSEM_MEMBER
  6
Continuous
 62
     0
100
AcDbCircle
 10
88.0104324814
 20
271.3809133764
 30
0.0
 40
0.2
100
AcDbArc
 50
90.0
 51
180.0
  0
ARC
  5
760
330
24F
100
AcDbEntity
  8
ALL_ASSEM_MEMBER
  6
Continuous
 62
     0
100
AcDbCircle
 10
194.4104324814
 20
210.8423870474
 30
0.0
 40
1.0
100
AcDbArc
 50
90.0
 51
180.0
  0
ARC
  5
761
330
24F
100
AcDbEntity
  8
ALL_ASSEM_MEMBER
  6
Continuous
 62
     0
100
AcDbCircle
 10
196.6104324814
 20
210.8423870474
 30
0.0
 40
1.0
100
AcDbArc
 50
4.9239389433
 51
90.0
  0
ARC
  5
762
330
24F
100
AcDbEntity
  8
ALL_ASSEM_MEMBER
  6
Continuous
 62
     0
100
AcDbCircle
 10
194.4104324814
 20
193.9423870474
 30
0.0
 40
1.0
100
AcDbArc
 50
180.0
 51
270.0
  0
ARC
  5
763
330
24F
100
AcDbEntity
  8
ALL_ASSEM_MEMBER
  6
Continuous
 62
     0
100
AcDbCircle
 10
196.6104324814
 20
193.9423870474
 30
0.0
 40
1.0
100
AcDbArc
 50
270.0
 51
360.0
  0
ARC
  5
764
330
24F
100
AcDbEntity
  8
ALL_ASSEM_MEMBER
  6
Continuous
 62
     0
100
AcDbCircle
 10
197.6604324814
 20
210.1423870474
 30
0.0
 40
0.8
100
AcDbArc
 50
100.8069228749
 51
180.0
  0
ARC
  5
765
330
24F
100
AcDbEntity
  8
ALL_ASSEM_MEMBER
  6
Continuous
 62
     0
100
AcDbCircle
 10
198.3604324814
 20
210.1423870474
 30
0.0
 40
0.8
100
AcDbArc
 50
0.0
 51
79.1930771251
  0
ARC
  5
766
330
24F
100
AcDbEntity
  8
ALL_ASSEM_MEMBER
  6
Continuous
 62
     0
100
AcDbCircle
 10
172.3104324814
 20
147.8809133764
 30
0.0
 40
0.5
100
AcDbArc
 50
359.998574802
 51
90.00591237499997
  0
ARC
  5
767
330
24F
100
AcDbEntity
  8
ALL_ASSEM_MEMBER
  6
Continuous
 62
     0
100
AcDbCircle
 10
191.0554324814
 20
196.8473870474
 30
0.0
 40
0.455
100
AcDbArc
 50
270.0
 51
360.0
  0
ARC
  5
768
330
24F
100
AcDbEntity
  8
ALL_ASSEM_MEMBER
  6
Continuous
 62
     0
100
AcDbCircle
 10
191.0554324814
 20
207.9373870474
 30
0.0
 40
0.455
100
AcDbArc
 50
0.0
 51
90.0
  0
ARC
  5
769
330
24F
100
AcDbEntity
  8
ALL_ASSEM_MEMBER
  6
Continuous
 62
     0
100
AcDbCircle
 10
177.3104324814
 20
170.4326435332
 30
0.0
 40
0.25
100
AcDbArc
 50
336.6186160563
 51
360.0
  0
ARC
  5
76A
330
24F
100
AcDbEntity
  8
ALL_ASSEM_MEMBER
  6
Continuous
 62
     0
100
AcDbCircle
 10
170.3104324814
 20
153.3602213137
 30
0.0
 40
0.1
100
AcDbArc
 50
156.6186160563
 51
180.0
  0
ARC
  5
76B
330
24F
100
AcDbEntity
  8
ALL_ASSEM_MEMBER
  6
Continuous
 62
     7
100
AcDbCircle
 10
130.5604324814
 20
275.9044517827
 30
0.0
 40
0.7
100
AcDbArc
 50
0.0
 51
180.0000000204
  0
ARC
  5
76D
330
24F
100
AcDbEntity
  8
ALL_ASSEM_MEMBER
  6
Continuous
 62
     0
100
AcDbCircle
 10
177.3104324814
 20
264.3074879048
 30
0.0
 40
0.25
100
AcDbArc
 50
0.0
 51
32.7352262721
  0
ARC
  5
76E
330
24F
100
AcDbEntity
  8
ALL_ASSEM_MEMBER
  6
Continuous
 62
     0
100
AcDbCircle
 10
129.0104324814
 20
271.3809133764
 30
0.0
 40
0.2
100
AcDbArc
 50
90.0
 51
180.0
  0
ARC
  5
76F
330
24F
100
AcDbEntity
  8
ALL_ASSEM_MEMBER
  6
Continuous
 62
     0
100
AcDbCircle
 10
132.1104324814
 20
271.3809133764
 30
0.0
 40
0.2
100
AcDbArc
 50
0.0
 51
90.0
  0
ARC
  5
772
330
24F
100
AcDbEntity
  8
ALL_ASSEM_MEMBER
  6
Continuous
 62
     7
100
AcDbCircle
 10
324.5871639747
 20
273.2809133764
 30
0.0
 40
3.3235384063
100
AcDbArc
 50
325.0992939421
 51
214.9007060579
  0
ARC
  5
773
330
24F
100
AcDbEntity
  8
ALL_ASSEM_MEMBER
  6
Continuous
 62
     7
100
AcDbCircle
 10
299.5871639747
 20
273.2809133764
 30
0.0
 40
3.3235384063
100
AcDbArc
 50
325.0992939421
 51
214.9007060579
  0
ARC
  5
774
330
24F
100
AcDbEntity
  8
ALL_ASSEM_MEMBER
  6
Continuous
 62
     0
100
AcDbCircle
 10
324.5871639747
 20
273.2809133764
 30
0.0
 40
1.923538406
100
AcDbArc
 50
298.0013463385
 51
241.9986536615
  0
ARC
  5
775
330
24F
100
AcDbEntity
  8
ALL_ASSEM_MEMBER
  6
Continuous
 62
     0
100
AcDbCircle
 10
299.5871639747
 20
273.2809133764
 30
0.0
 40
1.923538406
100
AcDbArc
 50
298.0013463385
 51
241.9986536615
  0
ARC
  5
776
330
24F
100
AcDbEntity
  8
ALL_ASSEM_MEMBER
  6
Continuous
 62
     0
100
AcDbCircle
 10
374.3371639747
 20
147.8809133764
 30
0.0
 40
0.5
100
AcDbArc
 50
359.998574802
 51
90.00591237510001
  0
ARC
  5
777
330
24F
100
AcDbEntity
  8
ALL_ASSEM_MEMBER
  6
Continuous
 62
     0
100
AcDbCircle
 10
249.8371639747
 20
147.8809133764
 30
0.0
 40
0.5
100
AcDbArc
 50
89.9940600707
 51
180.0080088572
  0
ARC
  5
778
330
24F
100
AcDbEntity
  8
ALL_ASSEM_MEMBER
  6
Continuous
 62
     0
100
AcDbCircle
 10
244.8371639747
 20
170.4326435332
 30
0.0
 40
0.25
100
AcDbArc
 50
180.0
 51
203.3813839437
  0
ARC
  5
779
330
24F
100
AcDbEntity
  8
ALL_ASSEM_MEMBER
  6
Continuous
 62
     0
100
AcDbCircle
 10
379.3371639747
 20
170.4326435332
 30
0.0
 40
0.25
100
AcDbArc
 50
336.6186160563
 51
360.0
  0
ARC
  5
77A
330
24F
100
AcDbEntity
  8
ALL_ASSEM_MEMBER
  6
Continuous
 62
     0
100
AcDbCircle
 10
244.8371639747
 20
264.3074879048
 30
0.0
 40
0.25
100
AcDbArc
 50
147.2647737279
 51
180.0
  0
ARC
  5
77B
330
24F
100
AcDbEntity
  8
ALL_ASSEM_MEMBER
  6
Continuous
 62
     0
100
AcDbCircle
 10
379.3371639747
 20
264.3074879048
 30
0.0
 40
0.25
100
AcDbArc
 50
0.0
 51
32.7352262721
  0
ARC
  5
77C
330
24F
100
AcDbEntity
  8
ALL_ASSEM_MEMBER
  6
Continuous
 62
     0
100
AcDbCircle
 10
372.3371639747
 20
153.3602213137
 30
0.0
 40
0.1
100
AcDbArc
 50
156.6186160563
 51
180.0
  0
ARC
  5
77D
330
24F
100
AcDbEntity
  8
ALL_ASSEM_MEMBER
  6
Continuous
 62
     0
100
AcDbCircle
 10
251.8371639747
 20
153.3602213137
 30
0.0
 40
0.1
100
AcDbArc
 50
0.0
 51
23.3813839437
  0
CIRCLE
  5
77E
330
24F
100
AcDbEntity
  8
ALL_ASSEM_MEMBER
  6
Continuous
 62
     7
100
AcDbCircle
 10
57.5604324814
 20
295.5910753304
 30
0.0
 40
0.7
  0
ARC
  5
77F
330
24F
100
AcDbEntity
  8
ALL_ASSEM_MEMBER
  6
Continuous
 62
     7
100
AcDbCircle
 10
47.6104324814
 20
285.6410753304
 30
0.0
 40
0.3
100
AcDbArc
 50
180.0
 51
270.0
  0
ARC
  5
780
330
24F
100
AcDbEntity
  8
ALL_ASSEM_MEMBER
  6
Continuous
 62
     7
100
AcDbCircle
 10
47.6104324814
 20
285.6410753304
 30
0.0
 40
0.1
100
AcDbArc
 50
180.0
 51
270.0
  0
CIRCLE
  5
781
330
24F
100
AcDbEntity
  8
ALL_ASSEM_MEMBER
  6
Continuous
 62
     7
100
AcDbCircle
 10
67.8866654241
 20
339.7021914837
 30
0.0
 40
0.6005553499
  0
CIRCLE
  5
782
330
24F
100
AcDbEntity
  8
ALL_ASSEM_MEMBER
  6
Continuous
 62
     7
100
AcDbCircle
 10
74.3072391524
 20
324.2015553105
 30
0.0
 40
0.6005553499
  0
CIRCLE
  5
783
330
24F
100
AcDbEntity
  8
ALL_ASSEM_MEMBER
  6
Continuous
 62
     7
100
AcDbCircle
 10
74.3072391524
 20
324.2015553105
 30
0.0
 40
0.4
  0
CIRCLE
  5
784
330
24F
100
AcDbEntity
  8
ALL_ASSEM_MEMBER
  6
Continuous
 62
     7
100
AcDbCircle
 10
67.8866654241
 20
339.7021914837
 30
0.0
 40
0.4
  0
CIRCLE
  5
785
330
24F
100
AcDbEntity
  8
ALL_ASSEM_MEMBER
  6
Continuous
 62
     7
100
AcDbCircle
 10
74.3072391524
 20
324.2015553105
 30
0.0
 40
0.35
  0
CIRCLE
  5
786
330
24F
100
AcDbEntity
  8
ALL_ASSEM_MEMBER
  6
Continuous
 62
     7
100
AcDbCircle
 10
67.8866654241
 20
339.7021914837
 30
0.0
 40
0.35
  0
CIRCLE
  5
788
330
24F
100
AcDbEntity
  8
ALL_ASSEM_MEMBER
  6
Continuous
 62
     7
100
AcDbCircle
 10
101.6715486347
 20
305.917308273
 30
0.0
 40
0.6005553499
  0
CIRCLE
  5
789
330
24F
100
AcDbEntity
  8
ALL_ASSEM_MEMBER
  6
Continuous
 62
     7
100
AcDbCircle
 10
118.4493163281
 20
305.917308273
 30
0.0
 40
0.6005553499
  0
CIRCLE
  5
78A
330
24F
100
AcDbEntity
  8
ALL_ASSEM_MEMBER
  6
Continuous
 62
     7
100
AcDbCircle
 10
101.6715486347
 20
305.917308273
 30
0.0
 40
0.4
  0
CIRCLE
  5
78B
330
24F
100
AcDbEntity
  8
ALL_ASSEM_MEMBER
  6
Continuous
 62
     7
100
AcDbCircle
 10
118.4493163281
 20
305.917308273
 30
0.0
 40
0.4
  0
CIRCLE
  5
78C
330
24F
100
AcDbEntity
  8
ALL_ASSEM_MEMBER
  6
Continuous
 62
     7
100
AcDbCircle
 10
101.6715486347
 20
305.917308273
 30
0.0
 40
0.35
  0
CIRCLE
  5
78D
330
24F
100
AcDbEntity
  8
ALL_ASSEM_MEMBER
  6
Continuous
 62
     7
100
AcDbCircle
 10
118.4493163281
 20
305.917308273
 30
0.0
 40
0.35
  0
ARC
  5
78F
330
24F
100
AcDbEntity
  8
ALL_ASSEM_MEMBER
  6
Continuous
 62
     0
100
AcDbCircle
 10
110.463985872
 20
280.8410753304
 30
0.0
 40
0.25
100
AcDbArc
 50
225.0
 51
245.4937268685
  0
ARC
  5
790
330
24F
100
AcDbEntity
  8
ALL_ASSEM_MEMBER
  6
Continuous
 62
     0
100
AcDbCircle
 10
110.109982223
 20
280.7708149106
 30
0.0
 40
0.05
100
AcDbArc
 50
45.0
 51
89.4840349684
  0
CIRCLE
  5
791
330
24F
100
AcDbEntity
  8
ALL_ASSEM_MEMBER
  6
Continuous
 62
     7
100
AcDbCircle
 10
86.1709124616
 20
312.3378820014
 30
0.0
 40
0.6005553499
  0
CIRCLE
  5
792
330
24F
100
AcDbEntity
  8
ALL_ASSEM_MEMBER
  6
Continuous
 62
     7
100
AcDbCircle
 10
86.1709124616
 20
312.3378820014
 30
0.0
 40
0.4
  0
CIRCLE
  5
793
330
24F
100
AcDbEntity
  8
ALL_ASSEM_MEMBER
  6
Continuous
 62
     7
100
AcDbCircle
 10
86.1709124616
 20
312.3378820014
 30
0.0
 40
0.35
  0
CIRCLE
  5
794
330
24F
100
AcDbEntity
  8
ALL_ASSEM_MEMBER
  6
Continuous
 62
     7
100
AcDbCircle
 10
67.8866654241
 20
356.4799591771
 30
0.0
 40
0.6005553499
  0
CIRCLE
  5
795
330
24F
100
AcDbEntity
  8
ALL_ASSEM_MEMBER
  6
Continuous
 62
     7
100
AcDbCircle
 10
74.3072391524
 20
371.9805953502
 30
0.0
 40
0.6005553499
  0
CIRCLE
  5
796
330
24F
100
AcDbEntity
  8
ALL_ASSEM_MEMBER
  6
Continuous
 62
     7
100
AcDbCircle
 10
74.3072391524
 20
371.9805953502
 30
0.0
 40
0.4
  0
CIRCLE
  5
797
330
24F
100
AcDbEntity
  8
ALL_ASSEM_MEMBER
  6
Continuous
 62
     7
100
AcDbCircle
 10
67.8866654241
 20
356.4799591771
 30
0.0
 40
0.4
  0
CIRCLE
  5
798
330
24F
100
AcDbEntity
  8
ALL_ASSEM_MEMBER
  6
Continuous
 62
     7
100
AcDbCircle
 10
74.3072391524
 20
371.9805953502
 30
0.0
 40
0.35
  0
CIRCLE
  5
799
330
24F
100
AcDbEntity
  8
ALL_ASSEM_MEMBER
  6
Continuous
 62
     7
100
AcDbCircle
 10
67.8866654241
 20
356.4799591771
 30
0.0
 40
0.35
  0
CIRCLE
  5
79D
330
24F
100
AcDbEntity
  8
ALL_ASSEM_MEMBER
  6
Continuous
 62
     7
100
AcDbCircle
 10
57.5604324814
 20
400.5910753304
 30
0.0
 40
0.7
  0
ARC
  5
79E
330
24F
100
AcDbEntity
  8
ALL_ASSEM_MEMBER
  6
Continuous
 62
     7
100
AcDbCircle
 10
47.6104324814
 20
410.5410753304
 30
0.0
 40
0.3
100
AcDbArc
 50
90.0
 51
180.0
  0
ARC
  5
79F
330
24F
100
AcDbEntity
  8
ALL_ASSEM_MEMBER
  6
Continuous
 62
     7
100
AcDbCircle
 10
47.6104324814
 20
410.5410753304
 30
0.0
 40
0.1
100
AcDbArc
 50
90.0
 51
180.0
  0
CIRCLE
  5
7A0
330
24F
100
AcDbEntity
  8
02___PRT_ALL_AXES
  6
CENTER
 62
     2
100
AcDbCircle
 10
110.0604324814
 20
348.0910753304
 30
0.0
 40
43.0
  0
CIRCLE
  5
7A1
330
24F
100
AcDbEntity
  8
ALL_ASSEM_MEMBER
  6
Continuous
 62
     7
100
AcDbCircle
 10
110.0604324814
 20
348.0910753304
 30
0.0
 40
34.5
  0
CIRCLE
  5
7A5
330
24F
100
AcDbEntity
  8
ALL_ASSEM_MEMBER
  6
Continuous
 62
     7
100
AcDbCircle
 10
118.4493163281
 20
390.2648423877
 30
0.0
 40
0.6005553499
  0
CIRCLE
  5
7A6
330
24F
100
AcDbEntity
  8
ALL_ASSEM_MEMBER
  6
Continuous
 62
     7
100
AcDbCircle
 10
86.1709124616
 20
383.8442686594
 30
0.0
 40
0.6005553499
  0
CIRCLE
  5
7A7
330
24F
100
AcDbEntity
  8
ALL_ASSEM_MEMBER
  6
Continuous
 62
     7
100
AcDbCircle
 10
101.6715486347
 20
390.2648423877
 30
0.0
 40
0.6005553499
  0
CIRCLE
  5
7A8
330
24F
100
AcDbEntity
  8
ALL_ASSEM_MEMBER
  6
Continuous
 62
     7
100
AcDbCircle
 10
118.4493163281
 20
390.2648423877
 30
0.0
 40
0.4
  0
CIRCLE
  5
7A9
330
24F
100
AcDbEntity
  8
ALL_ASSEM_MEMBER
  6
Continuous
 62
     7
100
AcDbCircle
 10
101.6715486347
 20
390.2648423877
 30
0.0
 40
0.4
  0
CIRCLE
  5
7AA
330
24F
100
AcDbEntity
  8
ALL_ASSEM_MEMBER
  6
Continuous
 62
     7
100
AcDbCircle
 10
86.1709124616
 20
383.8442686594
 30
0.0
 40
0.4
  0
CIRCLE
  5
7AB
330
24F
100
AcDbEntity
  8
ALL_ASSEM_MEMBER
  6
Continuous
 62
     7
100
AcDbCircle
 10
118.4493163281
 20
390.2648423877
 30
0.0
 40
0.35
  0
CIRCLE
  5
7AC
330
24F
100
AcDbEntity
  8
ALL_ASSEM_MEMBER
  6
Continuous
 62
     7
100
AcDbCircle
 10
101.6715486347
 20
390.2648423877
 30
0.0
 40
0.35
  0
CIRCLE
  5
7AD
330
24F
100
AcDbEntity
  8
ALL_ASSEM_MEMBER
  6
Continuous
 62
     7
100
AcDbCircle
 10
86.1709124616
 20
383.8442686594
 30
0.0
 40
0.35
  0
ARC
  5
7AF
330
24F
100
AcDbEntity
  8
ALL_ASSEM_MEMBER
  6
Continuous
 62
     0
100
AcDbCircle
 10
109.6568790908
 20
415.3410753304
 30
0.0
 40
0.25
100
AcDbArc
 50
45.0
 51
65.4937268685
  0
ARC
  5
7B0
330
24F
100
AcDbEntity
  8
ALL_ASSEM_MEMBER
  6
Continuous
 62
     0
100
AcDbCircle
 10
110.0108827397
 20
415.4113357502
 30
0.0
 40
0.05
100
AcDbArc
 50
225.0
 51
269.4840349684
  0
CIRCLE
  5
7B1
330
24F
100
AcDbEntity
  8
ALL_ASSEM_MEMBER
  6
Continuous
 62
     0
100
AcDbCircle
 10
195.5104324814
 20
346.3910753304
 30
0.0
 40
1.1
  0
CIRCLE
  5
7B2
330
24F
100
AcDbEntity
  8
ALL_ASSEM_MEMBER
  6
Continuous
 62
     0
100
AcDbCircle
 10
195.5104324814
 20
346.3910753304
 30
0.0
 40
1.005
  0
CIRCLE
  5
7B3
330
24F
100
AcDbEntity
  8
ALL_ASSEM_MEMBER
  6
Continuous
 62
     7
100
AcDbCircle
 10
162.5604324814
 20
295.5910753304
 30
0.0
 40
0.7
  0
CIRCLE
  5
7B4
330
24F
100
AcDbEntity
  8
ALL_ASSEM_MEMBER
  6
Continuous
 62
     7
100
AcDbCircle
 10
133.9499525012
 20
312.3378820014
 30
0.0
 40
0.6005553499
  0
CIRCLE
  5
7B5
330
24F
100
AcDbEntity
  8
ALL_ASSEM_MEMBER
  6
Continuous
 62
     7
100
AcDbCircle
 10
145.8136258104
 20
324.2015553105
 30
0.0
 40
0.6005553499
  0
CIRCLE
  5
7B6
330
24F
100
AcDbEntity
  8
ALL_ASSEM_MEMBER
  6
Continuous
 62
     7
100
AcDbCircle
 10
152.2341995387
 20
339.7021914837
 30
0.0
 40
0.6005553499
  0
CIRCLE
  5
7B7
330
24F
100
AcDbEntity
  8
ALL_ASSEM_MEMBER
  6
Continuous
 62
     7
100
AcDbCircle
 10
133.9499525012
 20
312.3378820014
 30
0.0
 40
0.4
  0
CIRCLE
  5
7B8
330
24F
100
AcDbEntity
  8
ALL_ASSEM_MEMBER
  6
Continuous
 62
     7
100
AcDbCircle
 10
145.8136258104
 20
324.2015553105
 30
0.0
 40
0.4
  0
CIRCLE
  5
7B9
330
24F
100
AcDbEntity
  8
ALL_ASSEM_MEMBER
  6
Continuous
 62
     7
100
AcDbCircle
 10
152.2341995387
 20
339.7021914837
 30
0.0
 40
0.4
  0
ARC
  5
7BA
330
24F
100
AcDbEntity
  8
ALL_ASSEM_MEMBER
  6
Continuous
 62
     0
100
AcDbCircle
 10
187.4504324814
 20
340.7510753304
 30
0.0
 40
0.36
100
AcDbArc
 50
270.0
 51
360.0
  0
CIRCLE
  5
7BB
330
24F
100
AcDbEntity
  8
ALL_ASSEM_MEMBER
  6
Continuous
 62
     7
100
AcDbCircle
 10
133.9499525012
 20
312.3378820014
 30
0.0
 40
0.35
  0
CIRCLE
  5
7BC
330
24F
100
AcDbEntity
  8
ALL_ASSEM_MEMBER
  6
Continuous
 62
     7
100
AcDbCircle
 10
145.8136258104
 20
324.2015553105
 30
0.0
 40
0.35
  0
CIRCLE
  5
7BD
330
24F
100
AcDbEntity
  8
ALL_ASSEM_MEMBER
  6
Continuous
 62
     7
100
AcDbCircle
 10
152.2341995387
 20
339.7021914837
 30
0.0
 40
0.35
  0
ARC
  5
7BE
330
24F
100
AcDbEntity
  8
ALL_ASSEM_MEMBER
  6
Continuous
 62
     7
100
AcDbCircle
 10
172.5104324814
 20
285.6410753304
 30
0.0
 40
0.3
100
AcDbArc
 50
270.0
 51
360.0
  0
ARC
  5
7BF
330
24F
100
AcDbEntity
  8
ALL_ASSEM_MEMBER
  6
Continuous
 62
     0
100
AcDbCircle
 10
192.5504324814
 20
340.5510753304
 30
0.0
 40
0.26
100
AcDbArc
 50
270.0
 51
360.0
  0
ARC
  5
7C2
330
24F
100
AcDbEntity
  8
ALL_ASSEM_MEMBER
  6
Continuous
 62
     0
100
AcDbCircle
 10
192.5504324814
 20
340.5510753304
 30
0.0
 40
0.16
100
AcDbArc
 50
270.0
 51
360.0
  0
ARC
  5
7C3
330
24F
100
AcDbEntity
  8
ALL_ASSEM_MEMBER
  6
Continuous
 62
     0
100
AcDbCircle
 10
187.4504324814
 20
340.7510753304
 30
0.0
 40
0.16
100
AcDbArc
 50
270.0
 51
360.0
  0
ARC
  5
7C4
330
24F
100
AcDbEntity
  8
ALL_ASSEM_MEMBER
  6
Continuous
 62
     7
100
AcDbCircle
 10
172.5104324814
 20
285.6410753304
 30
0.0
 40
0.1
100
AcDbArc
 50
270.0
 51
360.0
  0
CIRCLE
  5
7C5
330
24F
100
AcDbEntity
  8
ALL_ASSEM_MEMBER
  6
Continuous
 62
     7
100
AcDbCircle
 10
152.2341995387
 20
356.4799591771
 30
0.0
 40
0.6005553499
  0
CIRCLE
  5
7C6
330
24F
100
AcDbEntity
  8
ALL_ASSEM_MEMBER
  6
Continuous
 62
     7
100
AcDbCircle
 10
145.8136258104
 20
371.9805953502
 30
0.0
 40
0.6005553499
  0
CIRCLE
  5
7C7
330
24F
100
AcDbEntity
  8
ALL_ASSEM_MEMBER
  6
Continuous
 62
     7
100
AcDbCircle
 10
152.2341995387
 20
356.4799591771
 30
0.0
 40
0.4
  0
CIRCLE
  5
7C8
330
24F
100
AcDbEntity
  8
ALL_ASSEM_MEMBER
  6
Continuous
 62
     7
100
AcDbCircle
 10
145.8136258104
 20
371.9805953502
 30
0.0
 40
0.4
  0
CIRCLE
  5
7C9
330
24F
100
AcDbEntity
  8
ALL_ASSEM_MEMBER
  6
Continuous
 62
     7
100
AcDbCircle
 10
152.2341995387
 20
356.4799591771
 30
0.0
 40
0.35
  0
CIRCLE
  5
7CA
330
24F
100
AcDbEntity
  8
ALL_ASSEM_MEMBER
  6
Continuous
 62
     7
100
AcDbCircle
 10
145.8136258104
 20
371.9805953502
 30
0.0
 40
0.35
  0
CIRCLE
  5
7CB
330
24F
100
AcDbEntity
  8
ALL_ASSEM_MEMBER
  6
Continuous
 62
     7
100
AcDbCircle
 10
162.5604324814
 20
400.5910753304
 30
0.0
 40
0.7
  0
CIRCLE
  5
7CC
330
24F
100
AcDbEntity
  8
ALL_ASSEM_MEMBER
  6
Continuous
 62
     7
100
AcDbCircle
 10
133.9499525012
 20
383.8442686594
 30
0.0
 40
0.6005553499
  0
CIRCLE
  5
7CD
330
24F
100
AcDbEntity
  8
ALL_ASSEM_MEMBER
  6
Continuous
 62
     7
100
AcDbCircle
 10
133.9499525012
 20
383.8442686594
 30
0.0
 40
0.4
  0
CIRCLE
  5
7CE
330
24F
100
AcDbEntity
  8
ALL_ASSEM_MEMBER
  6
Continuous
 62
     7
100
AcDbCircle
 10
133.9499525012
 20
383.8442686594
 30
0.0
 40
0.35
  0
CIRCLE
  5
7D0
330
24F
100
AcDbEntity
  8
ALL_ASSEM_MEMBER
  6
Continuous
 62
     0
100
AcDbCircle
 10
195.5104324814
 20
350.1910753304
 30
0.0
 40
1.25
  0
CIRCLE
  5
7D1
330
24F
100
AcDbEntity
  8
ALL_ASSEM_MEMBER
  6
Continuous
 62
     0
100
AcDbCircle
 10
198.0104324814
 20
348.3910753304
 30
0.0
 40
0.8
  0
ARC
  5
7D2
330
24F
100
AcDbEntity
  8
ALL_ASSEM_MEMBER
  6
Continuous
 62
     0
100
AcDbCircle
 10
187.4504324814
 20
355.4310753304
 30
0.0
 40
0.36
100
AcDbArc
 50
0.0
 51
90.0
  0
ARC
  5
7D3
330
24F
100
AcDbEntity
  8
ALL_ASSEM_MEMBER
  6
Continuous
 62
     0
100
AcDbCircle
 10
192.5504324814
 20
355.6310753304
 30
0.0
 40
0.26
100
AcDbArc
 50
0.0
 51
90.0
  0
ARC
  5
7D4
330
24F
100
AcDbEntity
  8
ALL_ASSEM_MEMBER
  6
Continuous
 62
     0
100
AcDbCircle
 10
177.3104324814
 20
375.9469374
 30
0.0
 40
0.25
100
AcDbArc
 50
0.0
 51
45.0
  0
ARC
  5
7D5
330
24F
100
AcDbEntity
  8
ALL_ASSEM_MEMBER
  6
Continuous
 62
     0
100
AcDbCircle
 10
192.5504324814
 20
355.6310753304
 30
0.0
 40
0.16
100
AcDbArc
 50
0.0
 51
90.0
  0
ARC
  5
7D6
330
24F
100
AcDbEntity
  8
ALL_ASSEM_MEMBER
  6
Continuous
 62
     0
100
AcDbCircle
 10
187.4504324814
 20
355.4310753304
 30
0.0
 40
0.16
100
AcDbArc
 50
0.0
 51
90.0
  0
ARC
  5
7D7
330
24F
100
AcDbEntity
  8
ALL_ASSEM_MEMBER
  6
Continuous
 62
     7
100
AcDbCircle
 10
172.5104324814
 20
410.5410753304
 30
0.0
 40
0.3
100
AcDbArc
 50
0.0
 51
90.0
  0
ARC
  5
7D8
330
24F
100
AcDbEntity
  8
ALL_ASSEM_MEMBER
  6
Continuous
 62
     7
100
AcDbCircle
 10
172.5104324814
 20
410.5410753304
 30
0.0
 40
0.1
100
AcDbArc
 50
0.0
 51
90.0
  0
CIRCLE
  5
7D9
330
24F
100
AcDbEntity
  8
ALL_ASSEM_MEMBER
  6
Continuous
 62
     0
100
AcDbCircle
 10
57.5604324814
 20
18.3566497011
 30
0.0
 40
0.7
  0
ARC
  5
7DA
330
24F
100
AcDbEntity
  8
ALL_ASSEM_MEMBER
  6
Continuous
 62
     0
100
AcDbCircle
 10
47.6104324814
 20
8.4066497011
 30
0.0
 40
0.3
100
AcDbArc
 50
180.0
 51
270.0
  0
ARC
  5
7DB
330
24F
100
AcDbEntity
  8
ALL_ASSEM_MEMBER
  6
Continuous
 62
     0
100
AcDbCircle
 10
42.8104324814
 20
43.0007876315
 30
0.0
 40
0.25
100
AcDbArc
 50
180.0
 51
225.0
  0
ARC
  5
7DC
330
24F
100
AcDbEntity
  8
ALL_ASSEM_MEMBER
  6
Continuous
 62
     0
100
AcDbCircle
 10
42.8104324814
 20
43.0007876315
 30
0.0
 40
0.2102946188
100
AcDbArc
 50
180.0
 51
225.0
  0
ARC
  5
7DF
330
24F
100
AcDbEntity
  8
ALL_ASSEM_MEMBER
  6
Continuous
 62
     0
100
AcDbCircle
 10
82.2045704118
 20
3.6066497011
 30
0.0
 40
0.25
100
AcDbArc
 50
225.0
 51
270.0
  0
ARC
  5
7E0
330
24F
100
AcDbEntity
  8
ALL_ASSEM_MEMBER
  6
Continuous
 62
     0
100
AcDbCircle
 10
82.2045704118
 20
3.6066497011
 30
0.0
 40
0.2102946188
100
AcDbArc
 50
225.0
 51
270.0
  0
ARC
  5
7E1
330
24F
100
AcDbEntity
  8
ALL_ASSEM_MEMBER
  6
Continuous
 62
     0
100
AcDbCircle
 10
110.0604324814
 20
70.8566497011
 30
0.0
 40
49.65
100
AcDbArc
 50
180.3578581201
 51
346.6017673339001
  0
ARC
  5
7E2
330
24F
100
AcDbEntity
  8
ALL_ASSEM_MEMBER
  6
Continuous
 62
     0
100
AcDbCircle
 10
110.0604324814
 20
70.8566497011
 30
0.0
 40
49.65
100
AcDbArc
 50
13.3982326661
 51
179.6421418799
  0
ARC
  5
7E3
330
24F
100
AcDbEntity
  8
ALL_ASSEM_MEMBER
  6
Continuous
 62
     0
100
AcDbCircle
 10
110.0604324814
 20
70.8566497011
 30
0.0
 40
41.65
100
AcDbArc
 50
180.2063829676
 51
343.9617460111
  0
ARC
  5
7E4
330
24F
100
AcDbEntity
  8
ALL_ASSEM_MEMBER
  6
Continuous
 62
     0
100
AcDbCircle
 10
110.0604324814
 20
70.8566497011
 30
0.0
 40
41.65
100
AcDbArc
 50
16.0382539889
 51
180.0
  0
CIRCLE
  5
7E5
330
24F
100
AcDbEntity
  8
ALL_ASSEM_MEMBER
  6
Continuous
 62
     0
100
AcDbCircle
 10
110.0604324814
 20
70.8566497011
 30
0.0
 40
40.4
  0
CIRCLE
  5
7E6
330
24F
100
AcDbEntity
  8
ALL_ASSEM_MEMBER
  6
Continuous
 62
     0
100
AcDbCircle
 10
110.0604324814
 20
70.8566497011
 30
0.0
 40
34.7619484099
  0
ARC
  5
7E7
330
24F
100
AcDbEntity
  8
ALL_ASSEM_MEMBER
  6
Continuous
 62
     0
100
AcDbCircle
 10
42.8104324814
 20
98.7125117707
 30
0.0
 40
0.25
100
AcDbArc
 50
135.0
 51
180.0
  0
ARC
  5
7E8
330
24F
100
AcDbEntity
  8
ALL_ASSEM_MEMBER
  6
Continuous
 62
     0
100
AcDbCircle
 10
42.8104324814
 20
98.7125117707
 30
0.0
 40
0.2102946188
100
AcDbArc
 50
135.0
 51
180.0
  0
CIRCLE
  5
7E9
330
24F
100
AcDbEntity
  8
ALL_ASSEM_MEMBER
  6
Continuous
 62
     0
100
AcDbCircle
 10
57.5604324814
 20
123.3566497011
 30
0.0
 40
0.7
  0
ARC
  5
7EA
330
24F
100
AcDbEntity
  8
ALL_ASSEM_MEMBER
  6
Continuous
 62
     0
100
AcDbCircle
 10
47.6104324814
 20
133.3066497011
 30
0.0
 40
0.3
100
AcDbArc
 50
90.0
 51
180.0
  0
ARC
  5
7EB
330
24F
100
AcDbEntity
  8
ALL_ASSEM_MEMBER
  6
Continuous
 62
     0
100
AcDbCircle
 10
89.5604324814
 20
83.3566497011
 30
0.0
 40
1.75
100
AcDbArc
 50
113.5925973775
 51
246.4208588352
  0
ARC
  5
7EC
330
24F
100
AcDbEntity
  8
ALL_ASSEM_MEMBER
  6
Continuous
 62
     0
100
AcDbCircle
 10
89.5604324814
 20
83.3566497011
 30
0.0
 40
1.75
100
AcDbArc
 50
293.5791411648
 51
66.40740262249999
  0
ARC
  5
7ED
330
24F
100
AcDbEntity
  8
ALL_ASSEM_MEMBER
  6
Continuous
 62
     0
100
AcDbCircle
 10
89.5604324814
 20
85.9801881074
 30
0.0
 40
0.7
100
AcDbArc
 50
0.0
 51
180.0000000204
  0
ARC
  5
7EE
330
24F
100
AcDbEntity
  8
ALL_ASSEM_MEMBER
  6
Continuous
 62
     0
100
AcDbCircle
 10
89.5604324814
 20
80.7331112948
 30
0.0
 40
0.7
100
AcDbArc
 50
179.9999999796
 51
360.0
  0
ARC
  5
7F0
330
24F
100
AcDbEntity
  8
ALL_ASSEM_MEMBER
  6
Continuous
 62
     0
100
AcDbCircle
 10
82.2045704118
 20
138.1066497011
 30
0.0
 40
0.25
100
AcDbArc
 50
90.0
 51
135.0
  0
ARC
  5
7F1
330
24F
100
AcDbEntity
  8
ALL_ASSEM_MEMBER
  6
Continuous
 62
     0
100
AcDbCircle
 10
82.2045704118
 20
138.1066497011
 30
0.0
 40
0.2102946188
100
AcDbArc
 50
90.0
 51
135.0
  0
ARC
  5
7F6
330
24F
100
AcDbEntity
  8
ALL_ASSEM_MEMBER
  6
Continuous
 62
     0
100
AcDbCircle
 10
110.109982223
 20
138.1769101209
 30
0.0
 40
0.05
100
AcDbArc
 50
270.5159650315001
 51
315.0
  0
CIRCLE
  5
7F7
330
24F
100
AcDbEntity
  8
ALL_ASSEM_MEMBER
  6
Continuous
 62
     0
100
AcDbCircle
 10
162.5604324814
 20
18.3566497011
 30
0.0
 40
0.7
  0
ARC
  5
7F8
330
24F
100
AcDbEntity
  8
ALL_ASSEM_MEMBER
  6
Continuous
 62
     0
100
AcDbCircle
 10
137.916294551
 20
3.6066497011
 30
0.0
 40
0.25
100
AcDbArc
 50
270.0
 51
315.0
  0
ARC
  5
7F9
330
24F
100
AcDbEntity
  8
ALL_ASSEM_MEMBER
  6
Continuous
 62
     0
100
AcDbCircle
 10
137.916294551
 20
3.6066497011
 30
0.0
 40
0.2102946188
100
AcDbArc
 50
270.0
 51
315.0
  0
ARC
  5
7FA
330
24F
100
AcDbEntity
  8
ALL_ASSEM_MEMBER
  6
Continuous
 62
     0
100
AcDbCircle
 10
130.5604324814
 20
58.3566497011
 30
0.0
 40
1.75
100
AcDbArc
 50
293.5925973775
 51
66.4208588352
  0
ARC
  5
7FB
330
24F
100
AcDbEntity
  8
ALL_ASSEM_MEMBER
  6
Continuous
 62
     0
100
AcDbCircle
 10
130.5604324814
 20
58.3566497011
 30
0.0
 40
1.75
100
AcDbArc
 50
113.5791411648
 51
246.4074026225
  0
ARC
  5
7FC
330
24F
100
AcDbEntity
  8
ALL_ASSEM_MEMBER
  6
Continuous
 62
     0
100
AcDbCircle
 10
130.5604324814
 20
55.7331112948
 30
0.0
 40
0.7
100
AcDbArc
 50
179.9999999796
 51
360.0
  0
ARC
  5
7FD
330
24F
100
AcDbEntity
  8
ALL_ASSEM_MEMBER
  6
Continuous
 62
     0
100
AcDbCircle
 10
130.5604324814
 20
60.9801881074
 30
0.0
 40
0.7
100
AcDbArc
 50
0.0
 51
180.0000000204
  0
ARC
  5
7FE
330
24F
100
AcDbEntity
  8
ALL_ASSEM_MEMBER
  6
Continuous
 62
     0
100
AcDbCircle
 10
172.5104324814
 20
8.4066497011
 30
0.0
 40
0.3
100
AcDbArc
 50
270.0
 51
360.0
  0
CIRCLE
  5
7FF
330
24F
100
AcDbEntity
  8
ALL_ASSEM_MEMBER
  6
Continuous
 62
     7
100
AcDbCircle
 10
195.5104324814
 20
68.7566497011
 30
0.0
 40
1.25
  0
CIRCLE
  5
800
330
24F
100
AcDbEntity
  8
ALL_ASSEM_MEMBER
  6
Continuous
 62
     7
100
AcDbCircle
 10
198.0104324814
 20
70.5566497011
 30
0.0
 40
0.5
  0
ARC
  5
801
330
24F
100
AcDbEntity
  8
ALL_ASSEM_MEMBER
  6
Continuous
 62
     0
100
AcDbCircle
 10
187.4504324814
 20
63.5166497011
 30
0.0
 40
0.36
100
AcDbArc
 50
275.9156629759
 51
360.0
  0
ARC
  5
802
330
24F
100
AcDbEntity
  8
ALL_ASSEM_MEMBER
  6
Continuous
 62
     0
100
AcDbCircle
 10
192.5504324814
 20
63.3166497011
 30
0.0
 40
0.26
100
AcDbArc
 50
270.0
 51
360.0
  0
ARC
  5
803
330
24F
100
AcDbEntity
  8
ALL_ASSEM_MEMBER
  6
Continuous
 62
     0
100
AcDbCircle
 10
177.3104324814
 20
43.0007876315
 30
0.0
 40
0.25
100
AcDbArc
 50
315.0
 51
360.0
  0
ARC
  5
804
330
24F
100
AcDbEntity
  8
ALL_ASSEM_MEMBER
  6
Continuous
 62
     0
100
AcDbCircle
 10
177.3104324814
 20
43.0007876315
 30
0.0
 40
0.2102946188
100
AcDbArc
 50
315.0
 51
360.0
  0
ARC
  5
805
330
24F
100
AcDbEntity
  8
ALL_ASSEM_MEMBER
  6
Continuous
 62
     0
100
AcDbCircle
 10
192.5504324814
 20
63.3166497011
 30
0.0
 40
0.16
100
AcDbArc
 50
270.0
 51
360.0
  0
ARC
  5
806
330
24F
100
AcDbEntity
  8
ALL_ASSEM_MEMBER
  6
Continuous
 62
     9
100
AcDbCircle
 10
195.5104324814
 20
72.5566497011
 30
0.0
 40
1.1
100
AcDbArc
 50
230.7038677095
 51
176.6084773556
  0
ARC
  5
807
330
24F
100
AcDbEntity
  8
ALL_ASSEM_MEMBER
  6
Continuous
 62
     7
100
AcDbCircle
 10
195.5104324814
 20
72.5566497011
 30
0.0
 40
1.005
100
AcDbArc
 50
233.5567607565
 51
173.8849496407
  0
CIRCLE
  5
808
330
24F
100
AcDbEntity
  8
ALL_ASSEM_MEMBER
  6
Continuous
 62
     0
100
AcDbCircle
 10
162.5604324814
 20
123.3566497011
 30
0.0
 40
0.7
  0
ARC
  5
809
330
24F
100
AcDbEntity
  8
ALL_ASSEM_MEMBER
  6
Continuous
 62
     0
100
AcDbCircle
 10
187.4504324814
 20
78.1966497011
 30
0.0
 40
0.36
100
AcDbArc
 50
0.0
 51
90.0
  0
ARC
  5
80A
330
24F
100
AcDbEntity
  8
ALL_ASSEM_MEMBER
  6
Continuous
 62
     0
100
AcDbCircle
 10
172.5104323425
 20
133.3066495622
 30
0.0
 40
0.2999997916
100
AcDbArc
 50
0.0000265337
 51
89.99997346629999
  0
ARC
  5
80B
330
24F
100
AcDbEntity
  8
ALL_ASSEM_MEMBER
  6
Continuous
 62
     0
100
AcDbCircle
 10
192.5504324814
 20
78.3966497011
 30
0.0
 40
0.26
100
AcDbArc
 50
0.0
 51
90.0
  0
ARC
  5
80C
330
24F
100
AcDbEntity
  8
ALL_ASSEM_MEMBER
  6
Continuous
 62
     0
100
AcDbCircle
 10
177.3104324814
 20
98.7125117707
 30
0.0
 40
0.25
100
AcDbArc
 50
0.0
 51
45.0
  0
ARC
  5
80D
330
24F
100
AcDbEntity
  8
ALL_ASSEM_MEMBER
  6
Continuous
 62
     0
100
AcDbCircle
 10
137.916294551
 20
138.1066497011
 30
0.0
 40
0.25
100
AcDbArc
 50
45.0
 51
90.0
  0
ARC
  5
80E
330
24F
100
AcDbEntity
  8
ALL_ASSEM_MEMBER
  6
Continuous
 62
     0
100
AcDbCircle
 10
177.3104324814
 20
98.7125117707
 30
0.0
 40
0.2102946188
100
AcDbArc
 50
0.0
 51
45.0
  0
ARC
  5
80F
330
24F
100
AcDbEntity
  8
ALL_ASSEM_MEMBER
  6
Continuous
 62
     0
100
AcDbCircle
 10
137.916294551
 20
138.1066497011
 30
0.0
 40
0.2102946188
100
AcDbArc
 50
45.0
 51
90.0
  0
ARC
  5
810
330
24F
100
AcDbEntity
  8
ALL_ASSEM_MEMBER
  6
Continuous
 62
     0
100
AcDbCircle
 10
192.5504324814
 20
78.3966497011
 30
0.0
 40
0.16
100
AcDbArc
 50
0.0
 51
90.0
  0
LINE
  5
882
330
24F
100
AcDbEntity
  8
02___PRT_ALL_AXES
  6
CENTER
 62
     2
100
AcDbLine
 10
110.0604324813501
 20
332.5568042685501
 30
0.0
 11
110.0604324813501
 21
363.6253463922498
 31
0.0
  0
LINE
  5
883
330
24F
100
AcDbEntity
  8
02___PRT_ALL_AXES
  6
CENTER
 62
     2
100
AcDbLine
 10
125.5947035432498
 20
348.0910753304
 30
0.0
 11
94.52616141955019
 21
348.0910753304
 31
0.0
  0
LINE
  5
885
330
24F
100
AcDbEntity
  8
ALL_ASSEM_MEMBER
  6
Continuous
 62
     0
100
AcDbLine
 10
172.8104324814
 20
315.3816598702
 30
0.0
 11
177.5604324814
 21
320.1316598702001
 31
0.0
  0
LWPOLYLINE
  5
886
330
24F
100
AcDbEntity
  8
ALL_ASSEM_MEMBER
  6
Continuous
 62
     0
100
AcDbPolyline
 90
       16
 70
     0
 43
0.0
 10
138.0459940761002
 20
415.4974101274
 10
138.0468784630002
 20
415.50284133
 10
138.0455848544002
 20
415.5095830014
 10
138.0419738989002
 20
415.5173814085
 10
138.0360484227002
 20
415.5256612643
 10
138.0281907254002
 20
415.5336331997
 10
138.0187337997002
 20
415.5408537742
 10
138.0079762225002
 20
415.5470004028
 10
137.9964861489002
 20
415.5517162532
 10
137.9846938443002
 20
415.5548616184
 10
137.9728571605002
 20
415.5563859387
 10
137.9615155723002
 20
415.5562213539
 10
137.9516205480002
 20
415.5544861189
 10
137.9437930293002
 20
415.5515323175
 10
137.9382382493002
 20
415.5476980237
 10
137.9351285322002
 20
415.5433321393
  0
LINE
  5
887
330
24F
100
AcDbEntity
  8
02___PRT_ALL_AXES
  6
CENTER
 62
     2
100
AcDbLine
 10
110.0604324814
 20
55.32237863925019
 30
0.0
 11
110.0604324814
 21
86.3909207629498
 31
0.0
  0
LINE
  5
888
330
24F
100
AcDbEntity
  8
02___PRT_ALL_AXES
  6
CENTER
 62
     2
100
AcDbLine
 10
125.5947035432997
 20
70.85664970110003
 30
0.0
 11
94.5261614196001
 21
70.85664970110003
 31
0.0
  0
LINE
  5
889
330
24F
100
AcDbEntity
  8
0
100
AcDbLine
 10
186.0804324814
 20
78.6566497011
 30
0.0
 11
186.0804324814
 21
78.5566497011
 31
0.0
  0
LINE
  5
88A
330
24F
100
AcDbEntity
  8
0
100
AcDbLine
 10
186.0804324814
 20
63.0566497011
 30
0.0
 11
186.0804324814
 21
63.1566497011
 31
0.0
  0
LINE
  5
88B
330
24F
100
AcDbEntity
  8
0
100
AcDbLine
 10
107.8604324814
 20
133.5372277615
 30
0.0
 11
107.8604324814
 21
133.7304729298
 31
0.0
  0
LINE
  5
88C
330
24F
100
AcDbEntity
  8
0
100
AcDbLine
 10
110.1104324814
 20
133.6633994167
 30
0.0
 11
107.8604324814
 21
133.6633994167
 31
0.0
  0
LINE
  5
88D
330
24F
100
AcDbEntity
  8
0
100
AcDbLine
 10
110.1117832564
 20
133.5372277615
 30
0.0
 11
107.8604324814
 21
133.5372277615
 31
0.0
  0
LINE
  5
88E
330
24F
100
AcDbEntity
  8
0
100
AcDbLine
 10
107.8604324814
 20
133.5372277615
 30
0.0
 11
107.8604324814
 21
130.8771787973
 31
0.0
  0
LINE
  5
88F
330
24F
100
AcDbEntity
  8
0
100
AcDbLine
 10
110.3604324814
 20
138.31694432
 30
0.0
 11
110.3604324814
 21
130.8771787973
 31
0.0
  0
LINE
  5
890
330
24F
100
AcDbEntity
  8
ALL_ASSEM_MEMBER
  6
Continuous
 62
     0
100
AcDbLine
 10
110.3604324814
 20
3.356649701100054
 30
0.0
 11
110.1453375621
 21
3.57174462040004
 31
0.0
  0
LINE
  5
891
330
24F
100
AcDbEntity
  8
ALL_ASSEM_MEMBER
  6
Continuous
 62
     0
100
AcDbLine
 10
110.2872091767
 20
7.918243568900039
 30
0.0
 11
110.1453375621
 21
8.037582917300057
 31
0.0
  0
LINE
  5
892
330
24F
100
AcDbEntity
  8
ALL_ASSEM_MEMBER
  6
Continuous
 62
     0
100
AcDbLine
 10
110.3932751939
 20
8.007464019500048
 30
0.0
 11
110.2514035793
 21
8.126803368000054
 31
0.0
  0
LWPOLYLINE
  5
893
330
24F
100
AcDbEntity
  8
ALL_ASSEM_MEMBER
  6
Continuous
 62
     0
100
AcDbPolyline
 90
        5
 70
     0
 43
0.0
 10
110.2514035793
 20
8.126803368000054
 10
110.2214703689
 20
8.147514857200036
 10
110.1873501111
 20
8.162980823100042
 10
110.1503242256
 20
8.172620425800062
 10
110.1117832564
 20
8.176071640700059
  0
LWPOLYLINE
  5
894
330
24F
100
AcDbEntity
  8
ALL_ASSEM_MEMBER
  6
Continuous
 62
     0
100
AcDbPolyline
 90
        4
 70
     0
 43
0.0
 10
110.1453375621
 20
8.037582917300057
 10
110.1351120904
 20
8.044203574100038
 10
110.1232128884
 20
8.04840248380006
 10
110.1104324814
 20
8.049899985500048
  0
LINE
  5
895
330
24F
100
AcDbEntity
  8
ALL_ASSEM_MEMBER
  6
Continuous
 62
     0
100
AcDbLine
 10
110.1104324814
 20
8.049899985500048
 30
0.0
 11
110.1117832564
 21
8.176071640700059
 31
0.0
  0
LINE
  5
896
330
24F
100
AcDbEntity
  8
ALL_ASSEM_MEMBER
  6
Continuous
 62
     0
100
AcDbLine
 10
110.0454324814
 20
3.356649701100054
 30
0.0
 11
110.0454324814
 21
7.9828264724
 31
0.0
  0
LINE
  5
898
330
24F
100
AcDbEntity
  8
ALL_ASSEM_MEMBER
  6
Continuous
 62
     0
100
AcDbLine
 10
110.1117832564
 20
10.85664970110005
 30
0.0
 11
110.1117832564
 21
8.176071640700059
 31
0.0
  0
LINE
  5
899
330
24F
100
AcDbEntity
  8
ALL_ASSEM_MEMBER
  6
Continuous
 62
     0
100
AcDbLine
 10
110.3604324814
 20
3.396355082200046
 30
0.0
 11
110.3604324814
 21
3.356649701100054
 31
0.0
  0
LWPOLYLINE
  5
89A
330
24F
100
AcDbEntity
  8
ALL_ASSEM_MEMBER
  6
Continuous
 62
     0
100
AcDbPolyline
 90
        5
 70
     0
 43
0.0
 10
110.463985872
 20
7.982826472400063
 10
110.4444768398
 20
7.984442773200044
 10
110.4257175288
 20
7.989229562300039
 10
110.4084288487
 20
7.997002885800043
 10
110.3932751939
 20
8.007464019500048
  0
LWPOLYLINE
  5
89B
330
24F
100
AcDbEntity
  8
ALL_ASSEM_MEMBER
  6
Continuous
 62
     0
100
AcDbPolyline
 90
        5
 70
     0
 43
0.0
 10
110.463985872
 20
7.856649701100054
 10
110.4152132915
 20
7.86069045320005
 10
110.3683150139
 20
7.872657425800043
 10
110.3250933137
 20
7.892090734700048
 10
110.2872091767
 20
7.918243568900039
  0
LINE
  5
89C
330
24F
100
AcDbEntity
  8
ALL_ASSEM_MEMBER
  6
Continuous
 62
     0
100
AcDbLine
 10
110.1104324814
 20
3.586387253900057
 30
0.0
 11
110.0454324814
 21
3.586972613500052
 31
0.0
  0
ARC
  5
89D
330
24F
100
AcDbEntity
  8
ALL_ASSEM_MEMBER
  6
Continuous
 62
     0
100
AcDbCircle
 10
110.109982223
 20
3.536389281300046
 30
0.0
 40
0.05
100
AcDbArc
 50
45.0
 51
89.48403496849839
  0
LINE
  5
89E
330
24F
100
AcDbEntity
  8
0
100
AcDbLine
 10
107.8604324814
 20
8.176071640700059
 30
0.0
 11
107.8604324814
 21
7.982826472400063
 31
0.0
  0
LINE
  5
89F
330
24F
100
AcDbEntity
  8
0
100
AcDbLine
 10
110.1104324814
 20
8.049899985500048
 30
0.0
 11
107.8604324814
 21
8.049899985500048
 31
0.0
  0
LINE
  5
8A0
330
24F
100
AcDbEntity
  8
0
100
AcDbLine
 10
110.1117832564
 20
8.176071640700059
 30
0.0
 11
107.8604324814
 21
8.176071640700059
 31
0.0
  0
LINE
  5
8A1
330
24F
100
AcDbEntity
  8
0
100
AcDbLine
 10
107.8604324814
 20
8.176071640700059
 30
0.0
 11
107.8604324814
 21
10.83612060490006
 31
0.0
  0
LINE
  5
8A2
330
24F
100
AcDbEntity
  8
0
100
AcDbLine
 10
110.3604324814
 20
3.396355082200046
 30
0.0
 11
110.3604324814
 21
10.83612060490006
 31
0.0
  0
LINE
  5
8A3
330
24F
100
AcDbEntity
  8
ALL_ASSEM_MEMBER
  6
Continuous
 62
     0
100
AcDbLine
 10
85.2070288646
 20
10.83612060490006
 30
0.0
 11
110.1117832564
 21
10.83612060490006
 31
0.0
  0
LINE
  5
8A4
330
24F
100
AcDbEntity
  8
ALL_ASSEM_MEMBER
  6
Continuous
 62
     0
100
AcDbLine
 10
85.2104302367
 20
10.85664970110005
 30
0.0
 11
110.1117832564
 21
10.85664970110005
 31
0.0
  0
LINE
  5
8A5
330
24F
100
AcDbEntity
  8
ALL_ASSEM_MEMBER
  6
Continuous
 62
     0
100
AcDbLine
 10
110.1117832564
 20
10.85664970110005
 30
0.0
 11
134.9104347261
 21
10.85664970110005
 31
0.0
  0
LINE
  5
8A6
330
24F
100
AcDbEntity
  8
ALL_ASSEM_MEMBER
  6
Continuous
 62
     0
100
AcDbLine
 10
110.1117832564
 20
10.83612060490006
 30
0.0
 11
134.9138360981
 21
10.83612060490006
 31
0.0
  0
LINE
  5
93E
330
24F
100
AcDbEntity
  8
ALL_DETAIL_ITEM
  6
PHANTOM
 62
     7
100
AcDbLine
 10
272.0871639747
 20
148.1809133764
 30
0.0
 11
272.0871639747
 21
122.1101963514
 31
0.0
  0
ARC
  5
93F
330
24F
100
AcDbEntity
  8
ALL_DETAIL_ITEM
  6
PHANTOM
 62
     7
100
AcDbCircle
 10
292.4800614636731
 20
67.37594618161484
 30
0.0
 40
58.40983144680693
100
AcDbArc
 50
69.83943743785233
 51
110.4343970792836
  0
ARC
  5
940
330
24F
100
AcDbEntity
  8
ALL_DETAIL_ITEM
  6
PHANTOM
 62
     7
100
AcDbCircle
 10
328.8033940205325
 20
39.03924956872167
 30
0.0
 40
86.2701934872791
100
AcDbArc
 50
74.34206663326455
 51
102.7654699017227
  0
ARC
  5
941
330
24F
100
AcDbEntity
  8
ALL_DETAIL_ITEM
  6
PHANTOM
 62
     7
100
AcDbCircle
 10
332.4850931841228
 20
176.3293348620763
 30
0.0
 40
57.65585459592818
100
AcDbArc
 50
249.8365319079159
 51
289.8759021429094
  0
LINE
  5
942
330
24F
100
AcDbEntity
  8
ALL_DETAIL_ITEM
  6
PHANTOM
 62
     7
100
AcDbLine
 10
352.0871639746999
 20
148.1786871873
 30
0.0
 11
352.0871639746999
 21
122.1079701623
 31
0.0
  0
LINE
  5
96F
102
{ACAD_REACTORS
330
97D
102
}
330
24F
100
AcDbEntity
  8
0
  6
Continuous
 62
     0
100
AcDbLine
 10
356.1601408932707
 20
148.3809133764
 30
0.0
 11
356.1967150196244
 21
148.1809133764
 31
0.0
  0
LINE
  5
972
102
{ACAD_REACTORS
330
97B
102
}
330
24F
100
AcDbEntity
  8
0
  6
Continuous
 62
     0
100
AcDbLine
 10
266.4150695697533
 20
148.1809133764
 30
0.0
 11
266.4068318312428
 21
148.3809133764
 31
0.0
  0
LINE
  5
974
102
{ACAD_REACTORS
330
97B
102
}
330
24F
100
AcDbEntity
  8
ALL_ASSEM_MEMBER
  6
Continuous
 62
     0
100
AcDbLine
 10
266.4150695697533
 20
148.1809133764
 30
0.0
 11
277.5871639747
 21
148.1809133764
 31
0.0
  0
LINE
  5
976
102
{ACAD_REACTORS
330
97B
102
}
330
24F
100
AcDbEntity
  8
0
100
AcDbLine
 10
277.5871639747
 20
148.3809133764
 30
0.0
 11
277.5871639747
 21
148.1809133764
 31
0.0
  0
LINE
  5
977
102
{ACAD_REACTORS
330
97D
102
}
330
24F
100
AcDbEntity
  8
0
100
AcDbLine
 10
346.5871639747
 20
148.3809133764
 30
0.0
 11
346.5871639747
 21
148.1809133764
 31
0.0
  0
LINE
  5
979
102
{ACAD_REACTORS
330
97D
102
}
330
24F
100
AcDbEntity
  8
ALL_ASSEM_MEMBER
  6
Continuous
 62
     0
100
AcDbLine
 10
346.5871639747
 20
148.1809133764
 30
0.0
 11
356.1967150196244
 21
148.1809133764
 31
0.0
  0
LINE
  5
97A
102
{ACAD_REACTORS
330
97D
102
}
330
24F
100
AcDbEntity
  8
ALL_ASSEM_MEMBER
  6
Continuous
 62
     0
100
AcDbLine
 10
346.5871639747
 20
148.3809133764
 30
0.0
 11
374.3371639747
 21
148.3809133764
 31
0.0
  0
HATCH
  5
97B
330
24F
100
AcDbEntity
  8
0
100
AcDbHatch
 10
0.0
 20
0.0
 30
0.0
210
0.0
220
0.0
230
1.0
  2
ANSI31
 70
     0
 71
     1
 91
        1
 92
        1
 93
        4
 72
     1
 10
277.5871639747
 20
148.3809133764
 11
277.5871639747
 21
148.1809133764
 72
     1
 10
266.4150695697533
 20
148.1809133764
 11
277.5871639747
 21
148.1809133764
 72
     1
 10
266.4150695697533
 20
148.1809133764
 11
266.4068318312428
 21
148.3809133764
 72
     1
 10
249.8371639747
 20
148.3809133764
 11
277.5871639747
 21
148.3809133764
 97
        4
330
976
330
974
330
972
330
3D3
 75
     0
 76
     1
 52
0.0
 41
0.1
 77
     0
 78
     1
 53
45.0
 43
0.0
 44
0.0
 45
-0.2245064030267288
 46
0.2245064030267289
 79
     0
 98
        1
 10
0.0
 20
0.0
1001
ACAD
1010
0.0
1020
0.0
1030
0.0
  0
HATCH
  5
97D
330
24F
100
AcDbEntity
  8
0
100
AcDbHatch
 10
0.0
 20
0.0
 30
0.0
210
0.0
220
0.0
230
1.0
  2
ANSI31
 70
     0
 71
     1
 91
        1
 92
        1
 93
        4
 72
     1
 10
346.5871639747
 20
148.3809133764
 11
346.5871639747
 21
148.1809133764
 72
     1
 10
346.5871639747
 20
148.1809133764
 11
356.1967150196244
 21
148.1809133764
 72
     1
 10
356.1601408932707
 20
148.3809133764
 11
356.1967150196244
 21
148.1809133764
 72
     1
 10
346.5871639747
 20
148.3809133764
 11
374.3371639747
 21
148.3809133764
 97
        4
330
977
330
979
330
96F
330
97A
 75
     0
 76
     1
 52
0.0
 41
0.1
 77
     0
 78
     1
 53
45.0
 43
0.0
 44
0.0
 45
-0.2245064030267288
 46
0.2245064030267289
 79
     0
 98
        1
 10
0.0
 20
0.0
1001
ACAD
1010
0.0
1020
0.0
1030
0.0
  0
LINE
  5
97F
330
24F
100
AcDbEntity
  8
0
100
AcDbLine
 10
277.5871639747
 20
148.3809133764
 30
0.0
 11
346.5871639747
 21
148.3809133764
 31
0.0
  0
LINE
  5
980
330
24F
100
AcDbEntity
  8
0
100
AcDbLine
 10
346.5871639747
 20
148.1809133764
 30
0.0
 11
277.5871639747
 21
148.1809133764
 31
0.0
  0
SPLINE
  5
982
330
24F
100
AcDbEntity
  8
0
100
AcDbSpline
210
0.0
220
0.0
230
1.0
 70
     8
 71
     3
 72
    11
 73
     7
 74
     5
 42
0.000000001
 43
0.0000000001
 44
0.0
 40
0.0
 40
0.0
 40
0.0
 40
0.0
 40
0.8208626887411291
 40
2.013644325546514
 40
3.23755070350887
 40
3.844764669697096
 40
3.844764669697096
 40
3.844764669697096
 40
3.844764669697096
 10
356.1967150196244
 20
148.1809133764
 30
0.0
 10
356.2507280639325
 20
147.9124720722003
 30
0.0
 10
356.3832265459175
 20
147.2539632663328
 30
0.0
 10
356.3522719679758
 20
146.1559681362796
 30
0.0
 10
355.9651208106367
 20
145.1987799353325
 30
0.0
 10
355.9942551354372
 20
144.5845852006271
 30
0.0
 10
356.0039163076103
 20
144.3809133764
 30
0.0
 11
356.1967150196244
 21
148.1809133764
 31
0.0
 11
356.3335363339567
 21
147.3715336869392
 31
0.0
 11
356.2828255606726
 21
146.1798305147637
 31
0.0
 11
356.0039163076103
 21
144.9881273425882
 31
0.0
 11
356.0039163076103
 21
144.3809133764
 31
0.0
  0
SPLINE
  5
983
330
24F
100
AcDbEntity
  8
0
100
AcDbSpline
210
0.0
220
0.0
230
1.0
 70
     8
 71
     3
 72
    11
 73
     7
 74
     5
 42
0.000000001
 43
0.0000000001
 44
0.0
 40
0.0
 40
0.0
 40
0.0
 40
0.0
 40
1.03406631641778
 40
2.219888170906131
 40
3.093177895558576
 40
3.869525060671273
 40
3.869525060671273
 40
3.869525060671273
 40
3.869525060671273
 10
266.4150695697533
 20
148.1809133764
 30
0.0
 10
266.5524149424932
 20
147.8527245288733
 30
0.0
 10
266.8472619590078
 20
147.1481831190229
 30
0.0
 10
266.4151088085248
 20
146.0980558216631
 30
0.0
 10
266.8394470048797
 20
145.196517814653
 30
0.0
 10
266.7935134381455
 20
144.6419176448402
 30
0.0
 10
266.7718963207429
 20
144.3809133764
 30
0.0
 11
266.4150695697533
 21
148.1809133764
 31
0.0
 11
266.6958301608169
 21
147.1856914728752
 31
0.0
 11
266.5690532276067
 21
146.0066659940208
 31
0.0
 11
266.7718963207429
 21
145.1572605415127
 31
0.0
 11
266.7718963207429
 21
144.3809133764
 31
0.0
  0
LINE
  5
984
330
24F
100
AcDbEntity
  8
ALL_ASSEM_MEMBER
  6
Continuous
 62
     0
100
AcDbLine
 10
352.0871639746999
 20
144.3809133764
 30
0.0
 11
374.8371639747
 21
144.3809133764
 31
0.0
  0
ENDSEC
  0
SECTION
  2
OBJECTS
  0
DICTIONARY
  5
C
330
0
100
AcDbDictionary
281
     1
  3
ACAD_GROUP
350
D
  3
ACAD_IMAGE_VARS
350
858
  3
ACAD_LAYOUT
350
1A
  3
ACAD_MLINESTYLE
350
17
  3
ACAD_PLOTSETTINGS
350
19
  3
ACAD_PLOTSTYLENAME
350
E
  3
ACAD_SCALELIST
350
815
  3
APPDATA
350
856
  3
DWGPROPS
350
985
  0
DICTIONARY
  5
D
102
{ACAD_REACTORS
330
C
102
}
330
C
100
AcDbDictionary
281
     1
  0
RASTERVARIABLES
  5
858
102
{ACAD_REACTORS
330
C
102
}
330
C
100
AcDbRasterVariables
 90
        0
 70
     1
 71
     1
 72
     1
  0
DICTIONARY
  5
1A
102
{ACAD_REACTORS
330
C
102
}
330
C
100
AcDbDictionary
281
     1
  3
Layout1
350
814
  3
Model
350
813
  0
DICTIONARY
  5
17
102
{ACAD_REACTORS
330
C
102
}
330
C
100
AcDbDictionary
281
     1
  3
Standard
350
18
  0
DICTIONARY
  5
19
102
{ACAD_REACTORS
330
C
102
}
330
C
100
AcDbDictionary
281
     1
  0
ACDBDICTIONARYWDFLT
  5
E
102
{ACAD_REACTORS
330
C
102
}
330
C
100
AcDbDictionary
281
     1
  3
Normal
350
F
100
AcDbDictionaryWithDefault
340
F
  0
DICTIONARY
  5
815
102
{ACAD_REACTORS
330
C
102
}
330
C
100
AcDbDictionary
281
     1
  3
A0
350
816
  3
A1
350
817
  3
A2
350
818
  3
A3
350
819
  3
A4
350
81A
  3
A5
350
81B
  3
A6
350
81C
  3
A7
350
81D
  3
A8
350
81E
  3
A9
350
81F
  3
B0
350
820
  3
B1
350
821
  3
B2
350
822
  3
B3
350
823
  3
B4
350
824
  3
B5
350
825
  3
B6
350
826
  3
B7
350
827
  3
B8
350
828
  3
B9
350
829
  3
C0
350
82A
  3
C1
350
82B
  3
C2
350
82C
  3
C3
350
82D
  3
C4
350
82E
  3
C5
350
82F
  3
C6
350
830
  3
C7
350
831
  3
C8
350
832
  3
C9
350
833
  3
D0
350
834
  3
D1
350
835
  3
D2
350
836
  0
DICTIONARY
  5
856
102
{ACAD_REACTORS
330
C
102
}
330
C
100
AcDbDictionary
281
     1
  0
XRECORD
  5
985
102
{ACAD_REACTORS
330
C
102
}
330
C
100
AcDbXrecord
280
     1
  1
DWGPROPS COOKIE
  2

  3

  4

  6

  7

  8
d610igzo
  9

300
=
301
=
302
=
303
=
304
=
305
=
306
=
307
=
308
=
309
=
 40
0.0
 41
0.0
 42
2457229.746680162
  1

 90
        0
  0
LAYOUT
  5
814
102
{ACAD_REACTORS
330
1A
102
}
330
1A
100
AcDbPlotSettings
  1

  2
none_device
  4

  6

 40
0.0
 41
0.0
 42
0.0
 43
0.0
 44
420.0
 45
420.0
 46
0.0
 47
0.0
 48
0.0
 49
0.0
140
0.0
141
0.0
142
1.0
143
1.0
 70
     0
 72
     1
 73
     0
 74
     0
  7

 75
     0
147
1.0
148
0.0
149
0.0
100
AcDbLayout
  1
Layout1
 70
     0
 71
     1
 10
0.0
 20
0.0
 11
420.0
 21
420.0
 12
0.0
 22
0.0
 32
0.0
 14
0.0
 24
0.0
 34
0.0
 15
0.0
 25
0.0
 35
0.0
146
0.0
 13
0.0
 23
0.0
 33
0.0
 16
1.0
 26
0.0
 36
0.0
 17
0.0
 27
1.0
 37
0.0
 76
     0
330
250
  0
LAYOUT
  5
813
102
{ACAD_REACTORS
330
1A
102
}
330
1A
100
AcDbPlotSettings
  1

  2
none_device
  4

  6

 40
0.0
 41
0.0
 42
0.0
 43
0.0
 44
420.0
 45
420.0
 46
0.0
 47
0.0
 48
0.0
 49
0.0
140
0.0
141
0.0
142
1.0
143
1.0
 70
  1024
 72
     1
 73
     0
 74
     0
  7

 75
     0
147
1.0
148
0.0
149
0.0
100
AcDbLayout
  1
Model
 70
     0
 71
     0
 10
19.65525096449346
 20
-17.28415606652155
 11
403.904580723196
 21
433.8217420567904
 12
0.0
 22
0.0
 32
0.0
 14
0.0
 24
0.0
 34
0.0
 15
0.0
 25
0.0
 35
0.0
146
0.0
 13
0.0
 23
0.0
 33
0.0
 16
1.0
 26
0.0
 36
0.0
 17
0.0
 27
1.0
 37
0.0
 76
     0
330
24F
331
1F4
  0
MLINESTYLE
  5
18
102
{ACAD_REACTORS
330
17
102
}
330
17
100
AcDbMlineStyle
  2
STANDARD
 70
     0
  3

 62
   256
 51
90.0
 52
90.0
 71
     2
 49
0.5
 62
   256
  6
BYLAYER
 49
-0.5
 62
   256
  6
BYLAYER
  0
ACDBPLACEHOLDER
  5
F
102
{ACAD_REACTORS
330
E
102
}
330
E
  0
SCALE
  5
816
102
{ACAD_REACTORS
330
815
102
}
330
815
100
AcDbScale
 70
     0
300
1:1
140
1.0
141
1.0
290
     1
  0
SCALE
  5
817
102
{ACAD_REACTORS
330
815
102
}
330
815
100
AcDbScale
 70
     0
300
1:2
140
1.0
141
2.0
290
     0
  0
SCALE
  5
818
102
{ACAD_REACTORS
330
815
102
}
330
815
100
AcDbScale
 70
     0
300
1:4
140
1.0
141
4.0
290
     0
  0
SCALE
  5
819
102
{ACAD_REACTORS
330
815
102
}
330
815
100
AcDbScale
 70
     0
300
1:5
140
1.0
141
5.0
290
     0
  0
SCALE
  5
81A
102
{ACAD_REACTORS
330
815
102
}
330
815
100
AcDbScale
 70
     0
300
1:8
140
1.0
141
8.0
290
     0
  0
SCALE
  5
81B
102
{ACAD_REACTORS
330
815
102
}
330
815
100
AcDbScale
 70
     0
300
1:10
140
1.0
141
10.0
290
     0
  0
SCALE
  5
81C
102
{ACAD_REACTORS
330
815
102
}
330
815
100
AcDbScale
 70
     0
300
1:16
140
1.0
141
16.0
290
     0
  0
SCALE
  5
81D
102
{ACAD_REACTORS
330
815
102
}
330
815
100
AcDbScale
 70
     0
300
1:20
140
1.0
141
20.0
290
     0
  0
SCALE
  5
81E
102
{ACAD_REACTORS
330
815
102
}
330
815
100
AcDbScale
 70
     0
300
1:30
140
1.0
141
30.0
290
     0
  0
SCALE
  5
81F
102
{ACAD_REACTORS
330
815
102
}
330
815
100
AcDbScale
 70
     0
300
1:40
140
1.0
141
40.0
290
     0
  0
SCALE
  5
820
102
{ACAD_REACTORS
330
815
102
}
330
815
100
AcDbScale
 70
     0
300
1:50
140
1.0
141
50.0
290
     0
  0
SCALE
  5
821
102
{ACAD_REACTORS
330
815
102
}
330
815
100
AcDbScale
 70
     0
300
1:100
140
1.0
141
100.0
290
     0
  0
SCALE
  5
822
102
{ACAD_REACTORS
330
815
102
}
330
815
100
AcDbScale
 70
     0
300
2:1
140
2.0
141
1.0
290
     0
  0
SCALE
  5
823
102
{ACAD_REACTORS
330
815
102
}
330
815
100
AcDbScale
 70
     0
300
4:1
140
4.0
141
1.0
290
     0
  0
SCALE
  5
824
102
{ACAD_REACTORS
330
815
102
}
330
815
100
AcDbScale
 70
     0
300
8:1
140
8.0
141
1.0
290
     0
  0
SCALE
  5
825
102
{ACAD_REACTORS
330
815
102
}
330
815
100
AcDbScale
 70
     0
300
10:1
140
10.0
141
1.0
290
     0
  0
SCALE
  5
826
102
{ACAD_REACTORS
330
815
102
}
330
815
100
AcDbScale
 70
     0
300
100:1
140
100.0
141
1.0
290
     0
  0
SCALE
  5
827
102
{ACAD_REACTORS
330
815
102
}
330
815
100
AcDbScale
 70
     0
300
1/128" = 1'-0"
140
0.0078125
141
12.0
290
     0
  0
SCALE
  5
828
102
{ACAD_REACTORS
330
815
102
}
330
815
100
AcDbScale
 70
     0
300
1/64" = 1'-0"
140
0.015625
141
12.0
290
     0
  0
SCALE
  5
829
102
{ACAD_REACTORS
330
815
102
}
330
815
100
AcDbScale
 70
     0
300
1/32" = 1'-0"
140
0.03125
141
12.0
290
     0
  0
SCALE
  5
82A
102
{ACAD_REACTORS
330
815
102
}
330
815
100
AcDbScale
 70
     0
300
1/16" = 1'-0"
140
0.0625
141
12.0
290
     0
  0
SCALE
  5
82B
102
{ACAD_REACTORS
330
815
102
}
330
815
100
AcDbScale
 70
     0
300
3/32" = 1'-0"
140
0.09375
141
12.0
290
     0
  0
SCALE
  5
82C
102
{ACAD_REACTORS
330
815
102
}
330
815
100
AcDbScale
 70
     0
300
1/8" = 1'-0"
140
0.125
141
12.0
290
     0
  0
SCALE
  5
82D
102
{ACAD_REACTORS
330
815
102
}
330
815
100
AcDbScale
 70
     0
300
3/16" = 1'-0"
140
0.1875
141
12.0
290
     0
  0
SCALE
  5
82E
102
{ACAD_REACTORS
330
815
102
}
330
815
100
AcDbScale
 70
     0
300
1/4" = 1'-0"
140
0.25
141
12.0
290
     0
  0
SCALE
  5
82F
102
{ACAD_REACTORS
330
815
102
}
330
815
100
AcDbScale
 70
     0
300
3/8" = 1'-0"
140
0.375
141
12.0
290
     0
  0
SCALE
  5
830
102
{ACAD_REACTORS
330
815
102
}
330
815
100
AcDbScale
 70
     0
300
1/2" = 1'-0"
140
0.5
141
12.0
290
     0
  0
SCALE
  5
831
102
{ACAD_REACTORS
330
815
102
}
330
815
100
AcDbScale
 70
     0
300
3/4" = 1'-0"
140
0.75
141
12.0
290
     0
  0
SCALE
  5
832
102
{ACAD_REACTORS
330
815
102
}
330
815
100
AcDbScale
 70
     0
300
1" = 1'-0"
140
1.0
141
12.0
290
     0
  0
SCALE
  5
833
102
{ACAD_REACTORS
330
815
102
}
330
815
100
AcDbScale
 70
     0
300
1-1/2" = 1'-0"
140
1.5
141
12.0
290
     0
  0
SCALE
  5
834
102
{ACAD_REACTORS
330
815
102
}
330
815
100
AcDbScale
 70
     0
300
3" = 1'-0"
140
3.0
141
12.0
290
     0
  0
SCALE
  5
835
102
{ACAD_REACTORS
330
815
102
}
330
815
100
AcDbScale
 70
     0
300
6" = 1'-0"
140
6.0
141
12.0
290
     0
  0
SCALE
  5
836
102
{ACAD_REACTORS
330
815
102
}
330
815
100
AcDbScale
 70
     0
300
1'-0" = 1'-0"
140
12.0
141
12.0
290
     0
  0
ENDSEC
  0
EOF
