  0
SECTION
  2
HEADER
  9
$ACADVER
  1
AC1015
  9
$ACADMAINTVER
 70
     6
  9
$DWGCODEPAGE
  3
ANSI_1250
  9
$INSBASE
 10
0.0
 20
0.0
 30
0.0
  9
$EXTMIN
 10
516.4570299150969
 20
-836.7620535032912
 30
0.0
  9
$EXTMAX
 10
2056.457029915097
 20
4121.092277719961
 30
0.0
  9
$LIMMIN
 10
331.4503864610733
 20
-1053.486036146937
  9
$LIMMAX
 10
2418.495084506915
 20
4355.013943545031
  9
$ORTHOMODE
 70
     0
  9
$REGENMODE
 70
     1
  9
$FILLMODE
 70
     1
  9
$QTEXTMODE
 70
     0
  9
$MIRRTEXT
 70
     1
  9
$LTSCALE
 40
32.67
  9
$ATTMODE
 70
     1
  9
$TEXTSIZE
 40
0.2
  9
$TRACEWID
 40
0.05
  9
$TEXTSTYLE
  7
STANDARD
  9
$CLAYER
  8
0
  9
$CELTYPE
  6
BYLAYER
  9
$CECOLOR
 62
   256
  9
$CELTSCALE
 40
1.0
  9
$DISPSILH
 70
     0
  9
$DIMSCALE
 40
1.0
  9
$DIMASZ
 40
3.5
  9
$DIMEXO
 40
0.0
  9
$DIMDLI
 40
22.572
  9
$DIMRND
 40
0.0
  9
$DIMDLE
 40
0.0
  9
$DIMEXE
 40
1.0
  9
$DIMTP
 40
0.04
  9
$DIMTM
 40
0.04
  9
$DIMTXT
 40
2.5
  9
$DIMCEN
 40
5.346
  9
$DIMTSZ
 40
0.0
  9
$DIMTOL
 70
     1
  9
$DIMLIM
 70
     0
  9
$DIMTIH
 70
     1
  9
$DIMTOH
 70
     1
  9
$DIMSE1
 70
     0
  9
$DIMSE2
 70
     0
  9
$DIMTAD
 70
     0
  9
$DIMZIN
 70
     0
  9
$DIMBLK
  1

  9
$DIMASO
 70
     1
  9
$DIMSHO
 70
     1
  9
$DIMPOST
  1

  9
$DIMAPOST
  1

  9
$DIMALT
 70
     0
  9
$DIMALTD
 70
     2
  9
$DIMALTF
 40
25.4
  9
$DIMLFAC
 40
1.0
  9
$DIMTOFL
 70
     0
  9
$DIMTVP
 40
0.0
  9
$DIMTIX
 70
     0
  9
$DIMSOXD
 70
     0
  9
$DIMSAH
 70
     0
  9
$DIMBLK1
  1

  9
$DIMBLK2
  1

  9
$DIMSTYLE
  2
STANDARD
  9
$DIMCLRD
 70
     0
  9
$DIMCLRE
 70
     0
  9
$DIMCLRT
 70
     0
  9
$DIMTFAC
 40
1.0
  9
$DIMGAP
 40
0.625
  9
$DIMJUST
 70
     0
  9
$DIMSD1
 70
     0
  9
$DIMSD2
 70
     0
  9
$DIMTOLJ
 70
     1
  9
$DIMTZIN
 70
     0
  9
$DIMALTZ
 70
     0
  9
$DIMALTTZ
 70
     0
  9
$DIMUPT
 70
     0
  9
$DIMDEC
 70
     4
  9
$DIMTDEC
 70
     4
  9
$DIMALTU
 70
     2
  9
$DIMALTTD
 70
     2
  9
$DIMTXSTY
  7
STANDARD
  9
$DIMAUNIT
 70
     0
  9
$DIMADEC
 70
     0
  9
$DIMALTRND
 40
0.0
  9
$DIMAZIN
 70
     0
  9
$DIMDSEP
 70
    44
  9
$DIMATFIT
 70
     3
  9
$DIMFRAC
 70
     0
  9
$DIMLDRBLK
  1

  9
$DIMLUNIT
 70
     2
  9
$DIMLWD
 70
    -2
  9
$DIMLWE
 70
    -2
  9
$DIMTMOVE
 70
     0
  9
$LUNITS
 70
     2
  9
$LUPREC
 70
     4
  9
$SKETCHINC
 40
0.1
  9
$FILLETRAD
 40
0.5
  9
$AUNITS
 70
     0
  9
$AUPREC
 70
     0
  9
$MENU
  1
.
  9
$ELEVATION
 40
0.0
  9
$PELEVATION
 40
0.0
  9
$THICKNESS
 40
0.0
  9
$LIMCHECK
 70
     0
  9
$CHAMFERA
 40
0.0
  9
$CHAMFERB
 40
0.0
  9
$CHAMFERC
 40
0.0
  9
$CHAMFERD
 40
0.0
  9
$SKPOLY
 70
     0
  9
$TDCREATE
 40
2457071.920398113
  9
$TDUCREATE
 40
2457071.878731447
  9
$TDUPDATE
 40
2457072.66730059
  9
$TDUUPDATE
 40
2457072.625633924
  9
$TDINDWG
 40
0.1357537963
  9
$TDUSRTIMER
 40
2457072.624207014
  9
$USRTIMER
 70
     1
  9
$ANGBASE
 50
0.0
  9
$ANGDIR
 70
     0
  9
$PDMODE
 70
     3
  9
$PDSIZE
 40
6.0
  9
$PLINEWID
 40
0.0
  9
$SPLFRAME
 70
     0
  9
$SPLINETYPE
 70
     6
  9
$SPLINESEGS
 70
     8
  9
$HANDSEED
  5
8367
  9
$SURFTAB1
 70
     6
  9
$SURFTAB2
 70
     6
  9
$SURFTYPE
 70
     6
  9
$SURFU
 70
     6
  9
$SURFV
 70
     6
  9
$UCSBASE
  2

  9
$UCSNAME
  2

  9
$UCSORG
 10
0.0
 20
0.0
 30
0.0
  9
$UCSXDIR
 10
1.0
 20
0.0
 30
0.0
  9
$UCSYDIR
 10
0.0
 20
1.0
 30
0.0
  9
$UCSORTHOREF
  2

  9
$UCSORTHOVIEW
 70
     0
  9
$UCSORGTOP
 10
0.0
 20
0.0
 30
0.0
  9
$UCSORGBOTTOM
 10
0.0
 20
0.0
 30
0.0
  9
$UCSORGLEFT
 10
0.0
 20
0.0
 30
0.0
  9
$UCSORGRIGHT
 10
0.0
 20
0.0
 30
0.0
  9
$UCSORGFRONT
 10
0.0
 20
0.0
 30
0.0
  9
$UCSORGBACK
 10
0.0
 20
0.0
 30
0.0
  9
$PUCSBASE
  2

  9
$PUCSNAME
  2

  9
$PUCSORG
 10
0.0
 20
0.0
 30
0.0
  9
$PUCSXDIR
 10
1.0
 20
0.0
 30
0.0
  9
$PUCSYDIR
 10
0.0
 20
1.0
 30
0.0
  9
$PUCSORTHOREF
  2

  9
$PUCSORTHOVIEW
 70
     0
  9
$PUCSORGTOP
 10
0.0
 20
0.0
 30
0.0
  9
$PUCSORGBOTTOM
 10
0.0
 20
0.0
 30
0.0
  9
$PUCSORGLEFT
 10
0.0
 20
0.0
 30
0.0
  9
$PUCSORGRIGHT
 10
0.0
 20
0.0
 30
0.0
  9
$PUCSORGFRONT
 10
0.0
 20
0.0
 30
0.0
  9
$PUCSORGBACK
 10
0.0
 20
0.0
 30
0.0
  9
$USERI1
 70
     0
  9
$USERI2
 70
     0
  9
$USERI3
 70
     0
  9
$USERI4
 70
     0
  9
$USERI5
 70
     0
  9
$USERR1
 40
0.0
  9
$USERR2
 40
0.0
  9
$USERR3
 40
0.0
  9
$USERR4
 40
0.0
  9
$USERR5
 40
0.0
  9
$WORLDVIEW
 70
     1
  9
$SHADEDGE
 70
     3
  9
$SHADEDIF
 70
    70
  9
$TILEMODE
 70
     1
  9
$MAXACTVP
 70
    64
  9
$PINSBASE
 10
0.0
 20
0.0
 30
0.0
  9
$PLIMCHECK
 70
     0
  9
$PEXTMIN
 10
1.000000000000000E+20
 20
1.000000000000000E+20
 30
1.000000000000000E+20
  9
$PEXTMAX
 10
-1.000000000000000E+20
 20
-1.000000000000000E+20
 30
-1.000000000000000E+20
  9
$PLIMMIN
 10
0.0
 20
0.0
  9
$PLIMMAX
 10
594.0
 20
420.0
  9
$UNITMODE
 70
     0
  9
$VISRETAIN
 70
     1
  9
$PLINEGEN
 70
     0
  9
$PSLTSCALE
 70
     1
  9
$TREEDEPTH
 70
  3020
  9
$CMLSTYLE
  2
Standard
  9
$CMLJUST
 70
     0
  9
$CMLSCALE
 40
1.0
  9
$PROXYGRAPHICS
 70
     1
  9
$MEASUREMENT
 70
     1
  9
$CELWEIGHT
370
    -1
  9
$ENDCAPS
280
     0
  9
$JOINSTYLE
280
     0
  9
$LWDISPLAY
290
     0
  9
$INSUNITS
 70
     4
  9
$HYPERLINKBASE
  1

  9
$STYLESHEET
  1

  9
$XEDIT
290
     1
  9
$CEPSNTYPE
380
     0
  9
$PSTYLEMODE
290
     1
  9
$FINGERPRINTGUID
  2
{E9C6B30A-59FB-4AA2-A627-2152B9EE8EE6}
  9
$VERSIONGUID
  2
{B5B71B08-170B-466E-B196-8C4D9A3A8B0A}
  9
$EXTNAMES
290
     1
  9
$PSVPSCALE
 40
0.0
  9
$OLESTARTUP
290
     0
  0
ENDSEC
  0
SECTION
  2
CLASSES
  0
CLASS
  1
ACDBDICTIONARYWDFLT
  2
AcDbDictionaryWithDefault
  3
ObjectDBX Classes
 90
        0
280
     0
281
     0
  0
CLASS
  1
ACDBPLACEHOLDER
  2
AcDbPlaceHolder
  3
ObjectDBX Classes
 90
        0
280
     0
281
     0
  0
CLASS
  1
LAYOUT
  2
AcDbLayout
  3
ObjectDBX Classes
 90
        0
280
     0
281
     0
  0
CLASS
  1
RASTERVARIABLES
  2
AcDbRasterVariables
  3
ISM
 90
        0
280
     0
281
     0
  0
CLASS
  1
IMAGEDEF
  2
AcDbRasterImageDef
  3
ISM
 90
        0
280
     0
281
     0
  0
CLASS
  1
IMAGEDEF_REACTOR
  2
AcDbRasterImageDefReactor
  3
ISM
 90
        1
280
     0
281
     0
  0
CLASS
  1
IMAGE
  2
AcDbRasterImage
  3
ISM
 90
      127
280
     0
281
     1
  0
CLASS
  1
SCALE
  2
AcDbScale
  3
ObjectDBX Classes
 90
     1153
280
     0
281
     0
  0
CLASS
  1
VISUALSTYLE
  2
AcDbVisualStyle
  3
ObjectDBX Classes
 90
     4095
280
     0
281
     0
  0
CLASS
  1
MATERIAL
  2
AcDbMaterial
  3
ObjectDBX Classes
 90
     1153
280
     0
281
     0
  0
CLASS
  1
TABLESTYLE
  2
AcDbTableStyle
  3
ObjectDBX Classes
 90
     4095
280
     0
281
     0
  0
CLASS
  1
SUN
  2
AcDbSun
  3
SCENEOE
 90
     1153
280
     0
281
     0
  0
CLASS
  1
MLEADERSTYLE
  2
AcDbMLeaderStyle
  3
ACDB_MLEADERSTYLE_CLASS
 90
     4095
280
     0
281
     0
  0
CLASS
  1
ACDBSECTIONVIEWSTYLE
  2
AcDbSectionViewStyle
  3
ObjectDBX Classes
 90
     1025
280
     1
281
     0
  0
CLASS
  1
ACDBDETAILVIEWSTYLE
  2
AcDbDetailViewStyle
  3
ObjectDBX Classes
 90
     1025
280
     1
281
     0
  0
CLASS
  1
DICTIONARYVAR
  2
AcDbDictionaryVar
  3
ObjectDBX Classes
 90
        0
280
     0
281
     0
  0
CLASS
  1
SORTENTSTABLE
  2
AcDbSortentsTable
  3
ObjectDBX Classes
 90
        0
280
     0
281
     0
  0
CLASS
  1
ACARRAYJIGENTITY
  2
AcArrayJigEntity
  3
ACAD_ARRAY
 90
      129
280
     1
281
     1
  0
CLASS
  1
ACDBASSOCNETWORK
  2
AcDbAssocNetwork
  3
ObjectDBX Classes
 90
     1025
280
     1
281
     0
  0
CLASS
  1
ACDBASSOCACTION
  2
AcDbAssocAction
  3
ObjectDBX Classes
 90
     1025
280
     1
281
     0
  0
CLASS
  1
ACDBASSOCARRAYACTIONBODY
  2
AcDbAssocArrayActionBody
  3
ObjectDBX Classes
 90
     1025
280
     1
281
     0
  0
CLASS
  1
ACDBASSOCVERTEXACTIONPARAM
  2
AcDbAssocVertexActionParam
  3
ObjectDBX Classes
 90
     1025
280
     1
281
     0
  0
CLASS
  1
ACDBASSOCDEPENDENCY
  2
AcDbAssocDependency
  3
ObjectDBX Classes
 90
     1025
280
     1
281
     0
  0
CLASS
  1
ACDBASSOCARRAYPOLARPARAMETERS
  2
AcDbAssocArrayPolarParameters
  3
ObjectDBX Classes
 90
     1025
280
     1
281
     0
  0
CLASS
  1
CELLSTYLEMAP
  2
AcDbCellStyleMap
  3
ObjectDBX Classes
 90
     1152
280
     0
281
     0
  0
ENDSEC
  0
SECTION
  2
TABLES
  0
TABLE
  2
VPORT
  5
8
330
0
100
AcDbSymbolTable
 70
     1
  0
VPORT
  5
1F4
330
8
100
AcDbSymbolTableRecord
100
AcDbViewportTableRecord
  2
*ACTIVE
 70
     0
 10
0.0
 20
0.0
 11
1.0
 21
1.0
 12
5389.988602761208
 22
1536.231012952629
 13
0.0
 23
0.0
 14
1.0
 24
1.0
 15
0.0
 25
0.0
 16
0.0
 26
0.0
 36
1.0
 17
0.0
 27
0.0
 37
0.0
 40
7571.899971568755
 41
2.038655462184874
 42
50.0
 43
0.0
 44
0.0
 50
0.0
 51
0.0
 71
    16
 72
   100
 73
     1
 74
     1
 75
     0
 76
     0
 77
     0
 78
     0
281
     0
 65
     1
110
0.0
120
0.0
130
0.0
111
1.0
121
0.0
131
0.0
112
0.0
122
1.0
132
0.0
 79
     0
146
0.0
1001
ACAD_NAV_VCDISPLAY
1070
     3
  0
ENDTAB
  0
TABLE
  2
LTYPE
  5
5
330
0
100
AcDbSymbolTable
 70
     6
  0
LTYPE
  5
14
330
5
100
AcDbSymbolTableRecord
100
AcDbLinetypeTableRecord
  2
BYBLOCK
 70
     0
  3

 72
    65
 73
     0
 40
0.0
  0
LTYPE
  5
15
330
5
100
AcDbSymbolTableRecord
100
AcDbLinetypeTableRecord
  2
BYLAYER
 70
     0
  3

 72
    65
 73
     0
 40
0.0
  0
LTYPE
  5
16
330
5
100
AcDbSymbolTableRecord
100
AcDbLinetypeTableRecord
  2
CONTINUOUS
 70
     0
  3
Solid line
 72
    65
 73
     0
 40
0.0
  0
LTYPE
  5
1F5
330
5
100
AcDbSymbolTableRecord
100
AcDbLinetypeTableRecord
  2
CENTER
 70
     0
  3
____ _ ____ _ ____ _ ____ _ ____ _ ____ _ ____
 72
    65
 73
     4
 40
0.6
 49
0.375
 74
     0
 49
-0.075
 74
     0
 49
0.075
 74
     0
 49
-0.075
 74
     0
  0
ENDTAB
  0
TABLE
  2
LAYER
  5
2
102
{ACAD_XDICTIONARY
360
336B
102
}
330
0
100
AcDbSymbolTable
 70
    87
  0
LAYER
  5
10
102
{ACAD_XDICTIONARY
360
3269
102
}
330
2
100
AcDbSymbolTableRecord
100
AcDbLayerTableRecord
  2
0
 70
     0
 62
     7
  6
CONTINUOUS
370
    -3
390
F
  0
LAYER
  5
203
102
{ACAD_XDICTIONARY
360
327D
102
}
330
2
100
AcDbSymbolTableRecord
100
AcDbLayerTableRecord
  2
02__ASM_ALL_AXES
 70
     0
 62
     7
  6
CONTINUOUS
370
    -3
390
F
  0
LAYER
  5
21F
102
{ACAD_XDICTIONARY
360
32B5
102
}
330
2
100
AcDbSymbolTableRecord
100
AcDbLayerTableRecord
  2
ALL_ASSEM_MEMBER
 70
     0
 62
     7
  6
CONTINUOUS
370
    -3
390
F
  0
ENDTAB
  0
TABLE
  2
STYLE
  5
3
330
0
100
AcDbSymbolTable
 70
     6
  0
STYLE
  5
11
330
3
100
AcDbSymbolTableRecord
100
AcDbTextStyleTableRecord
  2
STANDARD
 70
     0
 40
0.0
 41
0.6
 50
0.0
 71
     0
 42
0.2
  3
txt
  4

  0
ENDTAB
  0
TABLE
  2
VIEW
  5
6
330
0
100
AcDbSymbolTable
 70
     0
  0
ENDTAB
  0
TABLE
  2
UCS
  5
7
330
0
100
AcDbSymbolTable
 70
     0
  0
ENDTAB
  0
TABLE
  2
APPID
  5
9
330
0
100
AcDbSymbolTable
 70
     4
  0
APPID
  5
253
330
9
100
AcDbSymbolTableRecord
100
AcDbRegAppTableRecord
  2
ACAD
 70
     0
  0
APPID
  5
3247
330
9
100
AcDbSymbolTableRecord
100
AcDbRegAppTableRecord
  2
ACAD_EXEMPT_FROM_CAD_STANDARDS
 70
     0
  0
APPID
  5
3313
330
9
100
AcDbSymbolTableRecord
100
AcDbRegAppTableRecord
  2
ACAD_NAV_VCDISPLAY
 70
     0
  0
APPID
  5
6A36
330
9
100
AcDbSymbolTableRecord
100
AcDbRegAppTableRecord
  2
ACAD_MLEADERVER
 70
     0
  0
ENDTAB
  0
TABLE
  2
DIMSTYLE
  5
A
330
0
100
AcDbSymbolTable
 70
    10
100
AcDbDimStyleTable
  0
DIMSTYLE
105
29E
330
A
100
AcDbSymbolTableRecord
100
AcDbDimStyleTableRecord
  2
STANDARD
 70
     0
 41
3.5
 42
0.0
 44
1.0
 47
0.04
 48
0.04
 71
     1
 73
     0
 74
     0
 77
     1
 78
     8
140
2.5
147
0.625
178
     0
271
     1
272
     1
278
    44
284
     8
340
11
341
256
342
256
343
256
344
256
  0
ENDTAB
  0
TABLE
  2
BLOCK_RECORD
  5
1
330
0
100
AcDbSymbolTable
 70
   132
  0
BLOCK_RECORD
  5
254
102
{ACAD_XDICTIONARY
360
3382
102
}
330
1
100
AcDbSymbolTableRecord
100
AcDbBlockTableRecord
  2
*Model_Space
340
31BD
  0
BLOCK_RECORD
  5
255
330
1
100
AcDbSymbolTableRecord
100
AcDbBlockTableRecord
  2
*Paper_Space
340
31BE
  0
BLOCK_RECORD
  5
256
330
1
100
AcDbSymbolTableRecord
100
AcDbBlockTableRecord
  2
_FILLED
340
0
102
{BLKREFS
331
67C6
331
67CC
331
67CD
331
67D5
331
67D6
331
67DE
331
67DF
331
6AA8
331
6AA9
331
6AB2
331
6AB3
331
6ABC
331
6ABD
331
6AC6
331
6AC7
331
6AD0
331
6AD1
331
6ADA
331
6ADB
331
8134
331
8135
331
813D
331
813E
331
8146
331
8147
331
8112
331
8113
331
811B
331
811C
331
8124
331
8125
102
}
  0
BLOCK_RECORD
  5
69BB
102
{ACAD_REACTORS
330
69C9
102
}
330
1
100
AcDbSymbolTableRecord
100
AcDbBlockTableRecord
  2
*U99
340
0
102
{BLKREFS
331
69CD
331
69CE
331
69CF
331
69D0
331
69D1
331
69D2
331
69D3
331
69D4
331
69D5
331
69D6
331
69D7
331
69D8
331
69D9
331
69DA
331
69DB
331
69DC
102
}
  0
BLOCK_RECORD
  5
69BE
102
{ACAD_REACTORS
330
69C8
102
}
102
{ACAD_XDICTIONARY
360
6A3E
102
}
330
1
100
AcDbSymbolTableRecord
100
AcDbBlockTableRecord
  2
*U100
340
0
102
{BLKREFS
331
69C1
102
}
  0
ENDTAB
  0
ENDSEC
  0
SECTION
  2
BLOCKS
  0
BLOCK
  5
20
330
254
100
AcDbEntity
  8
0
100
AcDbBlockBegin
  2
*Model_Space
 70
     0
 10
0.0
 20
0.0
 30
0.0
  3
*Model_Space
  1
*Model_Space
  0
ENDBLK
  5
21
330
254
100
AcDbEntity
  8
0
100
AcDbBlockEnd
  0
BLOCK
  5
1C
330
255
100
AcDbEntity
 67
     1
  8
0
100
AcDbBlockBegin
  2
*Paper_Space
 70
     0
 10
0.0
 20
0.0
 30
0.0
  3
*Paper_Space
  1
*Paper_Space
  0
ENDBLK
  5
1D
330
255
100
AcDbEntity
 67
     1
  8
0
100
AcDbBlockEnd
  0
BLOCK
  5
3FE
330
256
100
AcDbEntity
  8
0
100
AcDbBlockBegin
  2
_FILLED
 70
     0
 10
0.0
 20
0.0
 30
0.0
  3
_FILLED
  1
_FILLED
  0
SOLID
  5
3FF
330
256
100
AcDbEntity
  8
0
  6
ByBlock
 62
     0
100
AcDbTrace
 10
0.0
 20
0.0
 30
0.0
 11
-1.0
 21
0.2142857143
 31
0.0
 12
-1.0
 22
-0.2142857143
 32
0.0
 13
-1.0
 23
-0.2142857143
 33
0.0
  0
ENDBLK
  5
400
330
256
100
AcDbEntity
  8
0
  6
ByBlock
 62
     0
100
AcDbBlockEnd
  0
BLOCK
  5
69BC
330
69BB
100
AcDbEntity
  8
0
100
AcDbBlockBegin
  2
*U99
 70
     1
 10
0.0
 20
0.0
 30
0.0
  3
*U99
  1
*U99
  0
CIRCLE
  5
69C2
330
69BB
100
AcDbEntity
  8
0
100
AcDbCircle
 10
0.0
 20
0.0
 30
0.0
 40
4.0
  0
ENDBLK
  5
69BD
330
69BB
100
AcDbEntity
  8
0
100
AcDbBlockEnd
  0
BLOCK
  5
69BF
330
69BE
100
AcDbEntity
  8
0
100
AcDbBlockBegin
  2
*U100
 70
     1
 10
0.0
 20
0.0
 30
0.0
  3
*U100
  1
*U100
  0
INSERT
  5
69CD
330
69BE
100
AcDbEntity
  8
0
  6
ByBlock
 62
     0
370
    -2
380
     1
100
AcDbBlockReference
  2
*U99
 10
1708.194700488486
 20
2815.452154575304
 30
0.0
  0
INSERT
  5
69CE
330
69BE
100
AcDbEntity
  8
0
  6
ByBlock
 62
     0
370
    -2
380
     1
100
AcDbBlockReference
  2
*U99
 10
1643.988963205191
 20
2970.458516306798
 30
0.0
 50
22.50000000000001
  0
INSERT
  5
69CF
330
69BE
100
AcDbEntity
  8
0
  6
ByBlock
 62
     0
370
    -2
380
     1
100
AcDbBlockReference
  2
*U99
 10
1525.352230113526
 20
3089.095249398463
 30
0.0
 50
45.0
  0
INSERT
  5
69D0
330
69BE
100
AcDbEntity
  8
0
  6
ByBlock
 62
     0
370
    -2
380
     1
100
AcDbBlockReference
  2
*U99
 10
1370.345868382032
 20
3153.300986681758
 30
0.0
 50
67.49999999999999
  0
INSERT
  5
69D1
330
69BE
100
AcDbEntity
  8
0
  6
ByBlock
 62
     0
370
    -2
380
     1
100
AcDbBlockReference
  2
*U99
 10
1202.568191448162
 20
3153.300986681758
 30
0.0
 50
89.99999999999999
  0
INSERT
  5
69D2
330
69BE
100
AcDbEntity
  8
0
  6
ByBlock
 62
     0
370
    -2
380
     1
100
AcDbBlockReference
  2
*U99
 10
1047.561829716668
 20
3089.095249398463
 30
0.0
 50
112.5
  0
INSERT
  5
69D3
330
69BE
100
AcDbEntity
  8
0
  6
ByBlock
 62
     0
370
    -2
380
     1
100
AcDbBlockReference
  2
*U99
 10
928.9250966250024
 20
2970.458516306798
 30
0.0
 50
134.9999999999999
  0
INSERT
  5
69D4
330
69BE
100
AcDbEntity
  8
0
  6
ByBlock
 62
     0
370
    -2
380
     1
100
AcDbBlockReference
  2
*U99
 10
864.7193593417082
 20
2815.452154575304
 30
0.0
 50
157.5
  0
INSERT
  5
69D5
330
69BE
100
AcDbEntity
  8
0
  6
ByBlock
 62
     0
370
    -2
380
     1
100
AcDbBlockReference
  2
*U99
 10
864.7193593417082
 20
2647.674477641434
 30
0.0
 50
180.0
  0
INSERT
  5
69D6
330
69BE
100
AcDbEntity
  8
0
  6
ByBlock
 62
     0
370
    -2
380
     1
100
AcDbBlockReference
  2
*U99
 10
928.9250966250031
 20
2492.668115909939
 30
0.0
 50
202.5000000000001
  0
INSERT
  5
69D7
330
69BE
100
AcDbEntity
  8
0
  6
ByBlock
 62
     0
370
    -2
380
     1
100
AcDbBlockReference
  2
*U99
 10
1047.561829716668
 20
2374.031382818274
 30
0.0
 50
225.0
  0
INSERT
  5
69D8
330
69BE
100
AcDbEntity
  8
0
  6
ByBlock
 62
     0
370
    -2
380
     1
100
AcDbBlockReference
  2
*U99
 10
1202.568191448162
 20
2309.82564553498
 30
0.0
 50
247.4999999999999
  0
INSERT
  5
69D9
330
69BE
100
AcDbEntity
  8
0
  6
ByBlock
 62
     0
370
    -2
380
     1
100
AcDbBlockReference
  2
*U99
 10
1370.345868382032
 20
2309.82564553498
 30
0.0
 50
269.9999999999999
  0
INSERT
  5
69DA
330
69BE
100
AcDbEntity
  8
0
  6
ByBlock
 62
     0
370
    -2
380
     1
100
AcDbBlockReference
  2
*U99
 10
1525.352230113526
 20
2374.031382818275
 30
0.0
 50
292.4999999999999
  0
INSERT
  5
69DB
330
69BE
100
AcDbEntity
  8
0
  6
ByBlock
 62
     0
370
    -2
380
     1
100
AcDbBlockReference
  2
*U99
 10
1643.988963205191
 20
2492.66811590994
 30
0.0
 50
314.9999999999998
  0
INSERT
  5
69DC
330
69BE
100
AcDbEntity
  8
0
  6
ByBlock
 62
     0
370
    -2
380
     1
100
AcDbBlockReference
  2
*U99
 10
1708.194700488486
 20
2647.674477641434
 30
0.0
 50
337.4999999999999
  0
ENDBLK
  5
69C0
330
69BE
100
AcDbEntity
  8
0
100
AcDbBlockEnd
  0
ENDSEC
  0
SECTION
  2
ENTITIES
  0
IMAGE
  5
478
330
254
100
AcDbEntity
  8
0
 92
        8
310
0800000000000000
100
AcDbRasterImage
 90
        0
 10
506.5853089461
 20
342.8287192337
 30
0.0
 11
0.1693333333
 21
0.0
 31
0.0
 12
0.0
 22
0.1693333333
 32
0.0
 13
377.0
 23
353.0
340
0
 70
     9
280
     0
281
    50
282
    50
283
     0
360
0
 71
     1
 91
        2
 14
-0.5
 24
-0.5
 14
376.5
 24
352.5
  0
HATCH
  5
489
330
254
100
AcDbEntity
  8
0
 62
     2
100
AcDbHatch
 10
0.0
 20
0.0
 30
0.0
210
0.0
220
0.0
230
1.0
  2
DEFAULT__17
 70
     0
 71
     0
 91
        2
 92
        1
 93
        4
 72
     1
 10
346.6676375884
 20
390.6545955857
 11
349.0676375884
 21
390.6545955857
 72
     1
 10
346.6676375884
 20
390.6545955857
 11
346.6676375884
 21
391.2545955857
 72
     1
 10
346.6676375884
 20
391.2545955857
 11
349.0676375884
 21
391.2545955857
 72
     1
 10
349.0676375884
 20
390.6545955857
 11
349.0676375884
 21
391.2545955857
 97
        0
 92
        1
 93
        4
 72
     1
 10
351.6676375883999
 20
390.6545955857
 11
354.0676375884
 21
390.6545955857
 72
     1
 10
351.6676375883999
 20
390.6545955857
 11
351.6676375883999
 21
391.2545955857
 72
     1
 10
351.6676375883999
 20
391.2545955857
 11
354.0676375884
 21
391.2545955857
 72
     1
 10
354.0676375884
 20
390.6545955857
 11
354.0676375884
 21
391.2545955857
 97
        0
 75
     0
 76
     0
 52
45.0
 41
11.88
 77
     0
 78
     1
 53
45.0
 43
0.0
 44
0.0
 45
-8.400428560499998
 46
8.400428560499998
 79
     0
 98
        1
 10
0.0
 20
0.0
  0
LINE
  5
5074
330
254
100
AcDbEntity
  8
ALL_ASSEM_MEMBER
  6
Continuous
 62
     7
100
AcDbLine
 10
536.4570299150968
 20
1257.64001207344
 30
0.0
 11
536.4570299150968
 21
2277.6400120721
 31
0.0
  0
LWPOLYLINE
  5
5075
330
254
100
AcDbEntity
  8
ALL_ASSEM_MEMBER
  6
Continuous
 62
     7
100
AcDbPolyline
 90
       17
 70
     0
 43
0.0
 10
868.472136091597
 20
958.4400120729657
 10
868.230285889097
 20
958.557967503966
 10
867.9942217745971
 20
958.6671918559659
 10
867.7631838545973
 20
958.7681797204663
 10
867.5364960750971
 20
958.8613394769659
 10
867.313547514097
 20
958.9470077014659
 10
867.0937949615966
 20
959.0254539754662
 10
866.876748728097
 20
959.0968920539661
 10
866.6619743420971
 20
959.1614847179659
 10
866.4490865305974
 20
959.2193514704662
 10
866.2377445960974
 20
959.2705754014659
 10
866.0276536500969
 20
959.3152085684661
 10
865.8185548770973
 20
959.3532798664659
 10
865.610228121597
 20
959.3847998254658
 10
865.402483167597
 20
959.4097673684661
 10
865.1951571335974
 20
959.4281747189659
 10
864.9881089175972
 20
959.4400120729657
  0
LWPOLYLINE
  5
5076
330
254
100
AcDbEntity
  8
ALL_ASSEM_MEMBER
  6
Continuous
 62
     7
100
AcDbPolyline
 90
       17
 70
     0
 43
0.0
 10
860.966582592097
 20
958.4400120729657
 10
860.8456574905972
 20
958.557967503966
 10
860.7276254335967
 20
958.6671918559659
 10
860.6121064735971
 20
958.7681797204663
 10
860.4987625840969
 20
958.8613394769659
 10
860.387288303097
 20
958.9470077014659
 10
860.277412027097
 20
959.0254539754662
 10
860.168888910097
 20
959.0968920539661
 10
860.0615017170971
 20
959.1614847179659
 10
859.9550578115973
 20
959.2193514704662
 10
859.8493868445973
 20
959.2705754014659
 10
859.7443413715966
 20
959.3152085684661
 10
859.6397919850971
 20
959.3532798664659
 10
859.5356286070974
 20
959.3847998254658
 10
859.431756130097
 20
959.4097673684661
 10
859.3280931130971
 20
959.4281747189659
 10
859.2245690050972
 20
959.4400120729657
  0
LWPOLYLINE
  5
5077
330
254
100
AcDbEntity
  8
ALL_ASSEM_MEMBER
  6
Continuous
 62
     7
100
AcDbPolyline
 90
       17
 70
     0
 43
0.0
 10
872.224912841097
 20
958.4400120729657
 10
872.1039877400972
 20
958.557967503966
 10
871.9859556825973
 20
958.6671918559659
 10
871.8704367230971
 20
958.7681797204663
 10
871.7570928330969
 20
958.8613394769659
 10
871.6456185525972
 20
958.9470077014659
 10
871.5357422765974
 20
959.0254539754662
 10
871.4272191595973
 20
959.0968920539661
 10
871.3198319665972
 20
959.1614847179659
 10
871.2133880605973
 20
959.2193514704662
 10
871.1077170935974
 20
959.2705754014659
 10
871.0026716205971
 20
959.3152085684661
 10
870.8981222340971
 20
959.3532798664659
 10
870.793958856597
 20
959.3847998254658
 10
870.690086379097
 20
959.4097673684661
 10
870.5864233625971
 20
959.4281747189659
 10
870.4828992540972
 20
959.4400120729657
  0
LINE
  5
5079
330
254
100
AcDbEntity
  8
ALL_ASSEM_MEMBER
  6
Continuous
 62
     7
100
AcDbLine
 10
871.2249128410972
 20
959.4400120729657
 30
0.0
 11
872.224912841097
 21
958.4400120729657
 31
0.0
  0
LINE
  5
507B
330
254
100
AcDbEntity
  8
ALL_ASSEM_MEMBER
  6
Continuous
 62
     7
100
AcDbLine
 10
878.219359342097
 20
947.6400120729656
 30
0.0
 11
873.219359342097
 21
954.1400120729656
 31
0.0
  0
LINE
  5
507C
330
254
100
AcDbEntity
  8
ALL_ASSEM_MEMBER
  6
Continuous
 62
     7
100
AcDbLine
 10
658.9570299150969
 20
907.6400120729656
 30
0.0
 11
658.9570299150969
 21
942.6400120729658
 31
0.0
  0
LINE
  5
507D
330
254
100
AcDbEntity
  8
ALL_ASSEM_MEMBER
  6
Continuous
 62
     7
100
AcDbLine
 10
660.9570299150971
 20
907.6400120729656
 30
0.0
 11
660.9570299150971
 21
942.6400120729658
 31
0.0
  0
LWPOLYLINE
  5
5084
330
254
100
AcDbEntity
  8
ALL_ASSEM_MEMBER
  6
Continuous
 62
     7
100
AcDbPolyline
 90
       17
 70
     0
 43
0.0
 10
1713.689490825597
 20
959.4400120729657
 10
1713.585842983597
 20
959.4281566479658
 10
1713.482062187597
 20
959.4097168649657
 10
1713.378080281597
 20
959.3847044819659
 10
1713.273817951597
 20
959.3531297769658
 10
1713.169182635097
 20
959.314997028966
 10
1713.064065888097
 20
959.2702990989661
 10
1712.958341126097
 20
959.2190114359659
 10
1712.851862348597
 20
959.1610861239662
 10
1712.744461694097
 20
959.0964450969659
 10
1712.635948944597
 20
959.0249742649662
 10
1712.526108371597
 20
958.9465159629661
 10
1712.414698744097
 20
958.8608633864662
 10
1712.301449858097
 20
958.7677526099657
 10
1712.186060249097
 20
958.6668551339659
 10
1712.068194525097
 20
958.5577699684661
 10
1711.947477238597
 20
958.4400120729657
  0
LWPOLYLINE
  5
5085
330
254
100
AcDbEntity
  8
ALL_ASSEM_MEMBER
  6
Continuous
 62
     7
100
AcDbPolyline
 90
       17
 70
     0
 43
0.0
 10
1702.431160576097
 20
959.4400120729657
 10
1702.327512734098
 20
959.4281566479658
 10
1702.223731938597
 20
959.4097168649657
 10
1702.119750032597
 20
959.3847044819659
 10
1702.015487702597
 20
959.3531297769658
 10
1701.910852386097
 20
959.314997028966
 10
1701.805735638597
 20
959.2702990989661
 10
1701.700010877097
 20
959.2190114359659
 10
1701.593532099597
 20
959.1610861239662
 10
1701.486131444597
 20
959.0964450969659
 10
1701.377618695597
 20
959.0249742649662
 10
1701.267778122597
 20
958.9465159629661
 10
1701.156368495097
 20
958.8608633864662
 10
1701.043119608597
 20
958.7677526099657
 10
1700.927729999597
 20
958.6668551339659
 10
1700.809864275597
 20
958.5577699684661
 10
1700.689146989097
 20
958.4400120729657
  0
LWPOLYLINE
  5
5088
330
254
100
AcDbEntity
  8
ALL_ASSEM_MEMBER
  6
Continuous
 62
     7
100
AcDbPolyline
 90
       17
 70
     0
 43
0.0
 10
1707.925950913097
 20
959.4400120729657
 10
1707.718655229097
 20
959.4281566479658
 10
1707.511093637597
 20
959.4097168649657
 10
1707.303129825597
 20
959.3847044819659
 10
1707.094605165597
 20
959.3531297769658
 10
1706.885334532597
 20
959.314997028966
 10
1706.675101038097
 20
959.2702990989661
 10
1706.463651514598
 20
959.2190114359659
 10
1706.250693960097
 20
959.1610861239662
 10
1706.035892650097
 20
959.0964450969659
 10
1705.818867151597
 20
959.0249742649662
 10
1705.599186005597
 20
958.9465159629661
 10
1705.376366750097
 20
958.8608633864662
 10
1705.149868978097
 20
958.7677526099657
 10
1704.919089760097
 20
958.6668551339659
 10
1704.683358312097
 20
958.5577699684661
 10
1704.441923739097
 20
958.4400120729657
  0
LINE
  5
508B
330
254
100
AcDbEntity
  8
ALL_ASSEM_MEMBER
  6
Continuous
 62
     7
100
AcDbLine
 10
658.9570299150969
 20
907.6400120729656
 30
0.0
 11
1913.957029915097
 21
907.6400120729656
 31
0.0
  0
LINE
  5
50A4
330
254
100
AcDbEntity
  8
ALL_ASSEM_MEMBER
  6
Continuous
 62
     7
100
AcDbLine
 10
663.9570299150971
 20
945.6400120729659
 30
0.0
 11
1908.957029915097
 21
945.6400120729659
 31
0.0
  0
LINE
  5
50A6
330
254
100
AcDbEntity
  8
ALL_ASSEM_MEMBER
  6
Continuous
 62
     7
100
AcDbLine
 10
663.9570299150971
 20
947.6400120729656
 30
0.0
 11
895.7070299148069
 21
947.6400120729659
 31
0.0
  0
LINE
  5
50A7
330
254
100
AcDbEntity
  8
ALL_ASSEM_MEMBER
  6
Continuous
 62
     7
100
AcDbLine
 10
1677.207029915388
 20
947.6400120729656
 30
0.0
 11
1908.957029915097
 21
947.6400120729656
 31
0.0
  0
LWPOLYLINE
  5
50AC
330
254
100
AcDbEntity
  8
ALL_ASSEM_MEMBER
  6
Continuous
 62
     7
100
AcDbPolyline
 90
       17
 70
     0
 43
0.0
 10
870.2141496785971
 20
959.4400120729657
 10
870.110501836597
 20
959.4281566479658
 10
870.0067210410971
 20
959.4097168649657
 10
869.9027391350972
 20
959.3847044819659
 10
869.7984768050972
 20
959.3531297769658
 10
869.6938414885973
 20
959.314997028966
 10
869.5887247410968
 20
959.2702990989661
 10
869.482999979097
 20
959.2190114359659
 10
869.3765212020974
 20
959.1610861239662
 10
869.2691205470973
 20
959.0964450969659
 10
869.1606077980972
 20
959.0249742649662
 10
869.0507672250969
 20
958.9465159629661
 10
868.9393575970973
 20
958.8608633864662
 10
868.8261087110973
 20
958.7677526099657
 10
868.7107191020967
 20
958.6668551339659
 10
868.592853378097
 20
958.5577699684661
 10
868.472136091597
 20
958.4400120729657
  0
LWPOLYLINE
  5
50AD
330
254
100
AcDbEntity
  8
ALL_ASSEM_MEMBER
  6
Continuous
 62
     7
100
AcDbPolyline
 90
       17
 70
     0
 43
0.0
 10
858.9558194295971
 20
959.4400120729657
 10
858.852171587597
 20
959.4281566479658
 10
858.748390791597
 20
959.4097168649657
 10
858.6444088855969
 20
959.3847044819659
 10
858.5401465555971
 20
959.3531297769658
 10
858.4355112390971
 20
959.314997028966
 10
858.3303944920967
 20
959.2702990989661
 10
858.2246697300972
 20
959.2190114359659
 10
858.1181909530972
 20
959.1610861239662
 10
858.0107902980969
 20
959.0964450969659
 10
857.9022775485975
 20
959.0249742649662
 10
857.7924369755974
 20
958.9465159629661
 10
857.6810273480972
 20
958.8608633864662
 10
857.5677784620973
 20
958.7677526099657
 10
857.4523888530974
 20
958.6668551339659
 10
857.334523129097
 20
958.5577699684661
 10
857.2138058425973
 20
958.4400120729657
  0
LWPOLYLINE
  5
50AF
330
254
100
AcDbEntity
  8
ALL_ASSEM_MEMBER
  6
Continuous
 62
     7
100
AcDbPolyline
 90
       17
 70
     0
 43
0.0
 10
864.4506097660968
 20
959.4400120729657
 10
864.2433140820971
 20
959.4281566479658
 10
864.0357524905969
 20
959.4097168649657
 10
863.8277886785967
 20
959.3847044819659
 10
863.6192640185972
 20
959.3531297769658
 10
863.4099933855972
 20
959.314997028966
 10
863.1997598910968
 20
959.2702990989661
 10
862.9883103675973
 20
959.2190114359659
 10
862.7753528130972
 20
959.1610861239662
 10
862.5605515030969
 20
959.0964450969659
 10
862.3435260045972
 20
959.0249742649662
 10
862.1238448585973
 20
958.9465159629661
 10
861.9010256035974
 20
958.8608633864662
 10
861.6745278315972
 20
958.7677526099657
 10
861.4437486130975
 20
958.6668551339659
 10
861.2080171650971
 20
958.5577699684661
 10
860.966582592097
 20
958.4400120729657
  0
LINE
  5
50B2
330
254
100
AcDbEntity
  8
ALL_ASSEM_MEMBER
  6
Continuous
 62
     7
100
AcDbLine
 10
856.2193593420968
 20
954.1400120729656
 30
0.0
 11
873.219359342097
 21
954.1400120729656
 31
0.0
  0
LINE
  5
50B5
330
254
100
AcDbEntity
  8
ALL_ASSEM_MEMBER
  6
Continuous
 62
     7
100
AcDbLine
 10
1699.694700488597
 20
954.1400120729656
 30
0.0
 11
1716.694700488597
 21
954.1400120729656
 31
0.0
  0
LINE
  5
50BA
330
254
100
AcDbEntity
  8
ALL_ASSEM_MEMBER
  6
Continuous
 62
     7
100
AcDbLine
 10
858.2138058425973
 20
959.4400120729657
 30
0.0
 11
871.2249128410972
 21
959.4400120729657
 31
0.0
  0
LINE
  5
50BD
330
254
100
AcDbEntity
  8
ALL_ASSEM_MEMBER
  6
Continuous
 62
     7
100
AcDbLine
 10
1701.689146989097
 20
959.4400120729657
 30
0.0
 11
1714.700253988097
 21
959.4400120729657
 31
0.0
  0
LINE
  5
50CD
330
254
100
AcDbEntity
  8
ALL_ASSEM_MEMBER
  6
Continuous
 62
     7
100
AcDbLine
 10
857.2138058425973
 20
954.1400120729656
 30
0.0
 11
857.2138058425973
 21
958.4400120729657
 31
0.0
  0
LINE
  5
50CE
330
254
100
AcDbEntity
  8
ALL_ASSEM_MEMBER
  6
Continuous
 62
     7
100
AcDbLine
 10
860.719359342097
 20
945.6400120729659
 30
0.0
 11
860.719359342097
 21
929.6400120729659
 31
0.0
  0
LINE
  5
50CF
330
254
100
AcDbEntity
  8
ALL_ASSEM_MEMBER
  6
Continuous
 62
     7
100
AcDbLine
 10
860.966582592097
 20
954.1400120729656
 30
0.0
 11
860.966582592097
 21
958.4400120729657
 31
0.0
  0
LINE
  5
50D0
330
254
100
AcDbEntity
  8
ALL_ASSEM_MEMBER
  6
Continuous
 62
     7
100
AcDbLine
 10
868.472136091597
 20
954.1400120729656
 30
0.0
 11
868.472136091597
 21
958.4400120729657
 31
0.0
  0
LINE
  5
50D1
330
254
100
AcDbEntity
  8
ALL_ASSEM_MEMBER
  6
Continuous
 62
     7
100
AcDbLine
 10
868.7193593420968
 20
945.6400120729659
 30
0.0
 11
868.7193593420968
 21
929.6400120729659
 31
0.0
  0
LINE
  5
50D2
330
254
100
AcDbEntity
  8
ALL_ASSEM_MEMBER
  6
Continuous
 62
     7
100
AcDbLine
 10
872.224912841097
 20
954.1400120729656
 30
0.0
 11
872.224912841097
 21
958.4400120729657
 31
0.0
  0
LINE
  5
50E6
330
254
100
AcDbEntity
  8
ALL_ASSEM_MEMBER
  6
Continuous
 62
     7
100
AcDbLine
 10
924.925096625097
 20
945.6400120729659
 30
0.0
 11
924.925096625097
 21
929.6400120729659
 31
0.0
  0
LINE
  5
50E9
330
254
100
AcDbEntity
  8
ALL_ASSEM_MEMBER
  6
Continuous
 62
     7
100
AcDbLine
 10
932.925096625097
 20
945.6400120729659
 30
0.0
 11
932.925096625097
 21
929.6400120729659
 31
0.0
  0
LINE
  5
5106
330
254
100
AcDbEntity
  8
ALL_ASSEM_MEMBER
  6
Continuous
 62
     7
100
AcDbLine
 10
1043.561829716597
 20
945.6400120729659
 30
0.0
 11
1043.561829716597
 21
929.6400120729659
 31
0.0
  0
LINE
  5
5107
330
254
100
AcDbEntity
  8
ALL_ASSEM_MEMBER
  6
Continuous
 62
     7
100
AcDbLine
 10
1051.561829716597
 20
945.6400120729659
 30
0.0
 11
1051.561829716597
 21
929.6400120729659
 31
0.0
  0
LWPOLYLINE
  5
5108
330
254
100
AcDbEntity
  8
ALL_ASSEM_MEMBER
  6
Continuous
 62
     7
100
AcDbPolyline
 90
       17
 70
     0
 43
0.0
 10
1711.947477238597
 20
958.4400120729657
 10
1711.705627035597
 20
958.557967503966
 10
1711.469562921097
 20
958.6671918559659
 10
1711.238525001597
 20
958.7681797204663
 10
1711.011837222097
 20
958.8613394769659
 10
1710.788888660597
 20
958.9470077014659
 10
1710.569136108597
 20
959.0254539754662
 10
1710.352089874597
 20
959.0968920539661
 10
1710.137315488597
 20
959.1614847179659
 10
1709.924427677097
 20
959.2193514704662
 10
1709.713085743097
 20
959.2705754014659
 10
1709.502994797096
 20
959.3152085684661
 10
1709.293896024097
 20
959.3532798664659
 10
1709.085569268597
 20
959.3847998254658
 10
1708.877824314097
 20
959.4097673684661
 10
1708.670498280597
 20
959.4281747189659
 10
1708.463450064097
 20
959.4400120729657
  0
LINE
  5
5118
330
254
100
AcDbEntity
  8
ALL_ASSEM_MEMBER
  6
Continuous
 62
     7
100
AcDbLine
 10
1198.568191448097
 20
945.6400120729659
 30
0.0
 11
1198.568191448097
 21
929.6400120729659
 31
0.0
  0
LINE
  5
5119
330
254
100
AcDbEntity
  8
ALL_ASSEM_MEMBER
  6
Continuous
 62
     7
100
AcDbLine
 10
1206.568191448097
 20
945.6400120729659
 30
0.0
 11
1206.568191448097
 21
929.6400120729659
 31
0.0
  0
LWPOLYLINE
  5
511C
330
254
100
AcDbEntity
  8
ALL_ASSEM_MEMBER
  6
Continuous
 62
     7
100
AcDbPolyline
 90
       17
 70
     0
 43
0.0
 10
1704.441923739097
 20
958.4400120729657
 10
1704.320998637597
 20
958.557967503966
 10
1704.202966580097
 20
958.6671918559659
 10
1704.087447620597
 20
958.7681797204663
 10
1703.974103730597
 20
958.8613394769659
 10
1703.862629450097
 20
958.9470077014659
 10
1703.752753174097
 20
959.0254539754662
 10
1703.644230057097
 20
959.0968920539661
 10
1703.536842864097
 20
959.1614847179659
 10
1703.430398958597
 20
959.2193514704662
 10
1703.324727991097
 20
959.2705754014659
 10
1703.219682518097
 20
959.3152085684661
 10
1703.115133131596
 20
959.3532798664659
 10
1703.010969754097
 20
959.3847998254658
 10
1702.907097276597
 20
959.4097673684661
 10
1702.803434260097
 20
959.4281747189659
 10
1702.699910151597
 20
959.4400120729657
  0
LWPOLYLINE
  5
511D
330
254
100
AcDbEntity
  8
ALL_ASSEM_MEMBER
  6
Continuous
 62
     7
100
AcDbPolyline
 90
       17
 70
     0
 43
0.0
 10
1715.700253988097
 20
958.4400120729657
 10
1715.579328886597
 20
958.557967503966
 10
1715.461296829596
 20
958.6671918559659
 10
1715.345777869598
 20
958.7681797204663
 10
1715.232433980097
 20
958.8613394769659
 10
1715.120959699097
 20
958.9470077014659
 10
1715.011083423097
 20
959.0254539754662
 10
1714.902560306097
 20
959.0968920539661
 10
1714.795173113097
 20
959.1614847179659
 10
1714.688729207597
 20
959.2193514704662
 10
1714.583058240597
 20
959.2705754014659
 10
1714.478012767597
 20
959.3152085684661
 10
1714.373463381097
 20
959.3532798664659
 10
1714.269300003097
 20
959.3847998254658
 10
1714.165427526097
 20
959.4097673684661
 10
1714.061764509097
 20
959.4281747189659
 10
1713.958240401097
 20
959.4400120729657
  0
LINE
  5
5120
330
254
100
AcDbEntity
  8
ALL_ASSEM_MEMBER
  6
Continuous
 62
     7
100
AcDbLine
 10
1714.700253988097
 20
959.4400120729657
 30
0.0
 11
1715.700253988097
 21
958.4400120729657
 31
0.0
  0
LINE
  5
5122
330
254
100
AcDbEntity
  8
02__ASM_ALL_AXES
  6
CENTER
 62
     2
100
AcDbLine
 10
1286.457029915097
 20
897.6400120729656
 30
0.0
 11
1286.457029915097
 21
2417.640012072966
 31
0.0
  0
LINE
  5
5124
330
254
100
AcDbEntity
  8
ALL_ASSEM_MEMBER
  6
Continuous
 62
     7
100
AcDbLine
 10
851.219359342097
 20
947.6400120729656
 30
0.0
 11
856.2193593420968
 21
954.1400120729656
 31
0.0
  0
LINE
  5
512B
330
254
100
AcDbEntity
  8
ALL_ASSEM_MEMBER
  6
Continuous
 62
     7
100
AcDbLine
 10
858.2138058425973
 20
959.4400120729657
 30
0.0
 11
857.2138058425973
 21
958.4400120729657
 31
0.0
  0
LINE
  5
5130
330
254
100
AcDbEntity
  8
ALL_ASSEM_MEMBER
  6
Continuous
 62
     7
100
AcDbLine
 10
1721.694700488597
 20
947.6400120729656
 30
0.0
 11
1716.694700488597
 21
954.1400120729656
 31
0.0
  0
LINE
  5
5131
330
254
100
AcDbEntity
  8
ALL_ASSEM_MEMBER
  6
Continuous
 62
     7
100
AcDbLine
 10
1366.345868382097
 20
945.6400120729659
 30
0.0
 11
1366.345868382097
 21
929.6400120729659
 31
0.0
  0
LINE
  5
5132
330
254
100
AcDbEntity
  8
ALL_ASSEM_MEMBER
  6
Continuous
 62
     7
100
AcDbLine
 10
1374.345868382097
 20
945.6400120729659
 30
0.0
 11
1374.345868382097
 21
929.6400120729659
 31
0.0
  0
LINE
  5
513C
330
254
100
AcDbEntity
  8
ALL_ASSEM_MEMBER
  6
Continuous
 62
     7
100
AcDbLine
 10
1521.352230113597
 20
945.6400120729659
 30
0.0
 11
1521.352230113597
 21
929.6400120729659
 31
0.0
  0
LINE
  5
513D
330
254
100
AcDbEntity
  8
ALL_ASSEM_MEMBER
  6
Continuous
 62
     7
100
AcDbLine
 10
1529.352230113597
 20
945.6400120729659
 30
0.0
 11
1529.352230113597
 21
929.6400120729659
 31
0.0
  0
LINE
  5
514E
330
254
100
AcDbEntity
  8
ALL_ASSEM_MEMBER
  6
Continuous
 62
     7
100
AcDbLine
 10
1639.988963205097
 20
945.6400120729659
 30
0.0
 11
1639.988963205097
 21
929.6400120729659
 31
0.0
  0
LINE
  5
5151
330
254
100
AcDbEntity
  8
ALL_ASSEM_MEMBER
  6
Continuous
 62
     7
100
AcDbLine
 10
1647.988963205097
 20
945.6400120729659
 30
0.0
 11
1647.988963205097
 21
929.6400120729659
 31
0.0
  0
LINE
  5
5157
330
254
100
AcDbEntity
  8
ALL_ASSEM_MEMBER
  6
Continuous
 62
     7
100
AcDbLine
 10
1700.689146989097
 20
954.1400120729656
 30
0.0
 11
1700.689146989097
 21
958.4400120729657
 31
0.0
  0
LINE
  5
5159
330
254
100
AcDbEntity
  8
ALL_ASSEM_MEMBER
  6
Continuous
 62
     7
100
AcDbLine
 10
1704.194700488597
 20
945.6400120729659
 30
0.0
 11
1704.194700488597
 21
929.6400120729659
 31
0.0
  0
LINE
  5
515A
330
254
100
AcDbEntity
  8
ALL_ASSEM_MEMBER
  6
Continuous
 62
     7
100
AcDbLine
 10
1704.441923739097
 20
954.1400120729656
 30
0.0
 11
1704.441923739097
 21
958.4400120729657
 31
0.0
  0
LINE
  5
515B
330
254
100
AcDbEntity
  8
ALL_ASSEM_MEMBER
  6
Continuous
 62
     7
100
AcDbLine
 10
1711.947477238597
 20
954.1400120729656
 30
0.0
 11
1711.947477238597
 21
958.4400120729657
 31
0.0
  0
LINE
  5
515C
330
254
100
AcDbEntity
  8
ALL_ASSEM_MEMBER
  6
Continuous
 62
     7
100
AcDbLine
 10
1712.194700488597
 20
945.6400120729659
 30
0.0
 11
1712.194700488597
 21
929.6400120729659
 31
0.0
  0
LINE
  5
515D
330
254
100
AcDbEntity
  8
ALL_ASSEM_MEMBER
  6
Continuous
 62
     7
100
AcDbLine
 10
1715.700253988097
 20
954.1400120729656
 30
0.0
 11
1715.700253988097
 21
958.4400120729657
 31
0.0
  0
LINE
  5
51A3
330
254
100
AcDbEntity
  8
ALL_ASSEM_MEMBER
  6
Continuous
 62
     7
100
AcDbLine
 10
1911.957029915097
 20
907.6400120729656
 30
0.0
 11
1911.957029915097
 21
942.6400120729658
 31
0.0
  0
LINE
  5
51A4
330
254
100
AcDbEntity
  8
ALL_ASSEM_MEMBER
  6
Continuous
 62
     7
100
AcDbLine
 10
1913.957029915097
 20
907.6400120729656
 30
0.0
 11
1913.957029915097
 21
942.6400120729658
 31
0.0
  0
LINE
  5
51AF
330
254
100
AcDbEntity
  8
ALL_ASSEM_MEMBER
  6
Continuous
 62
     7
100
AcDbLine
 10
1694.694700488597
 20
947.6400120729656
 30
0.0
 11
1699.694700488597
 21
954.1400120729656
 31
0.0
  0
LINE
  5
51BA
330
254
100
AcDbEntity
  8
ALL_ASSEM_MEMBER
  6
Continuous
 62
     7
100
AcDbLine
 10
1701.689146989097
 20
959.4400120729657
 30
0.0
 11
1700.689146989097
 21
958.4400120729657
 31
0.0
  0
ARC
  5
64E8
330
254
100
AcDbEntity
  8
ALL_ASSEM_MEMBER
  6
Continuous
 62
     7
100
AcDbCircle
 10
663.9570299150971
 20
942.6400120729658
 30
0.0
 40
5.0
100
AcDbArc
 50
90.0
 51
180.0
  0
ARC
  5
64E9
330
254
100
AcDbEntity
  8
ALL_ASSEM_MEMBER
  6
Continuous
 62
     7
100
AcDbCircle
 10
663.9570299150971
 20
942.6400120729658
 30
0.0
 40
3.0
100
AcDbArc
 50
90.0
 51
180.0
  0
ARC
  5
6504
330
254
100
AcDbEntity
  8
ALL_ASSEM_MEMBER
  6
Continuous
 62
     7
100
AcDbCircle
 10
1908.957029915097
 20
942.6400120729658
 30
0.0
 40
5.0
100
AcDbArc
 50
0.0
 51
90.0
  0
ARC
  5
6506
330
254
100
AcDbEntity
  8
ALL_ASSEM_MEMBER
  6
Continuous
 62
     7
100
AcDbCircle
 10
1908.957029915097
 20
942.6400120729658
 30
0.0
 40
3.0
100
AcDbArc
 50
0.0
 51
90.0
  0
LINE
  5
67EA
330
254
100
AcDbEntity
  8
0
100
AcDbLine
 10
658.9570299150969
 20
560.7379464967086
 30
0.0
 11
853.2968581352756
 21
560.7379464967086
 31
0.0
  0
LINE
  5
67EB
330
254
100
AcDbEntity
  8
0
100
AcDbLine
 10
1913.957029915097
 20
560.7379464967086
 30
0.0
 11
1913.957029915097
 21
366.39811827653
 31
0.0
  0
LINE
  5
67EC
330
254
100
AcDbEntity
  8
0
100
AcDbLine
 10
1913.957029915097
 20
-694.2620535032911
 30
0.0
 11
1846.896422309088
 21
-694.2620535032911
 31
0.0
  0
LINE
  5
67ED
330
254
100
AcDbEntity
  8
0
100
AcDbLine
 10
658.9570299150969
 20
-694.2620535032911
 30
0.0
 11
658.9570299150969
 21
-499.9222252831122
 31
0.0
  0
LINE
  5
67EE
330
254
100
AcDbEntity
  8
02__ASM_ALL_AXES
  6
CENTER
 62
     2
100
AcDbLine
 10
1286.457029915097
 20
703.2379464967087
 30
0.0
 11
1286.457029915097
 21
-836.7620535032912
 31
0.0
  0
LINE
  5
67EF
330
254
100
AcDbEntity
  8
02__ASM_ALL_AXES
  6
CENTER
 62
     2
100
AcDbLine
 10
516.4570299150969
 20
-66.7620535032911
 30
0.0
 11
2056.457029915097
 21
-66.7620535032911
 31
0.0
  0
CIRCLE
  5
67F1
330
254
100
AcDbEntity
  8
0
100
AcDbCircle
 10
1286.457029915097
 20
-66.7620535032911
 30
0.0
 40
404.0
  0
CIRCLE
  5
67F2
330
254
100
AcDbEntity
  8
0
100
AcDbCircle
 10
1286.457029915097
 20
-66.7620535032911
 30
0.0
 40
210.0
  0
LINE
  5
6894
330
254
100
AcDbEntity
  8
ALL_ASSEM_MEMBER
  6
Continuous
 62
     7
100
AcDbLine
 10
1922.853132983085
 20
-618.3053428292981
 30
0.0
 11
1838.000319241101
 21
-703.1581565712773
 31
0.0
  0
LINE
  5
6895
330
254
100
AcDbEntity
  8
ALL_ASSEM_MEMBER
  6
Continuous
 62
     7
100
AcDbLine
 10
1838.000319241101
 20
-703.1581565712773
 30
0.0
 11
1774.360708934012
 21
-639.5185462641942
 31
0.0
  0
LINE
  5
68A1
330
254
100
AcDbEntity
  8
0
100
AcDbLine
 10
860.719359342097
 20
929.6400120729659
 30
0.0
 11
868.7193593420968
 21
929.6400120729659
 31
0.0
  0
LINE
  5
68A2
330
254
100
AcDbEntity
  8
0
100
AcDbLine
 10
924.925096625097
 20
929.6400120729659
 30
0.0
 11
932.925096625097
 21
929.6400120729659
 31
0.0
  0
LINE
  5
68A3
330
254
100
AcDbEntity
  8
0
100
AcDbLine
 10
1043.561829716597
 20
929.6400120729659
 30
0.0
 11
1051.561829716597
 21
929.6400120729659
 31
0.0
  0
LINE
  5
68A4
330
254
100
AcDbEntity
  8
0
100
AcDbLine
 10
1198.568191448097
 20
929.6400120729659
 30
0.0
 11
1206.568191448097
 21
929.6400120729659
 31
0.0
  0
LINE
  5
68A5
330
254
100
AcDbEntity
  8
0
100
AcDbLine
 10
1366.345868382097
 20
929.6400120729659
 30
0.0
 11
1374.345868382097
 21
929.6400120729659
 31
0.0
  0
LINE
  5
68A6
330
254
100
AcDbEntity
  8
0
100
AcDbLine
 10
1521.352230113597
 20
929.6400120729659
 30
0.0
 11
1529.352230113597
 21
929.6400120729659
 31
0.0
  0
LINE
  5
68A7
330
254
100
AcDbEntity
  8
0
100
AcDbLine
 10
1639.988963205097
 20
929.6400120729659
 30
0.0
 11
1647.988963205097
 21
929.6400120729659
 31
0.0
  0
LINE
  5
68A8
330
254
100
AcDbEntity
  8
0
100
AcDbLine
 10
1704.194700488597
 20
929.6400120729659
 30
0.0
 11
1712.194700488597
 21
929.6400120729659
 31
0.0
  0
LINE
  5
68BD
330
254
100
AcDbEntity
  8
0
100
AcDbLine
 10
1774.360708934014
 20
1435.862748513833
 30
0.0
 11
1922.85313298319
 21
1435.862748513833
 31
0.0
  0
LINE
  5
68BE
330
254
100
AcDbEntity
  8
0
100
AcDbLine
 10
1774.360708934014
 20
1317.640012072966
 30
0.0
 11
1922.85313298319
 21
1317.640012072966
 31
0.0
  0
LINE
  5
68BF
330
254
100
AcDbEntity
  8
0
100
AcDbLine
 10
1774.360708934014
 20
1317.640012072966
 30
0.0
 11
1774.360708934014
 21
1435.862748513833
 31
0.0
  0
LINE
  5
68C0
330
254
100
AcDbEntity
  8
0
100
AcDbLine
 10
1838.000319240805
 20
1317.640012072966
 30
0.0
 11
1838.000319240805
 21
1435.862748513833
 31
0.0
  0
LINE
  5
68C1
330
254
100
AcDbEntity
  8
0
100
AcDbLine
 10
1828.000319240805
 20
1317.640012072966
 30
0.0
 11
1828.000319240805
 21
1435.862748513833
 31
0.0
  0
LINE
  5
68C2
330
254
100
AcDbEntity
  8
0
100
AcDbLine
 10
1922.85313298319
 20
1317.640012072966
 30
0.0
 11
1922.85313298319
 21
1435.862748513833
 31
0.0
  0
SPLINE
  5
68CE
330
254
100
AcDbEntity
  8
0
100
AcDbSpline
210
0.0
220
0.0
230
1.0
 70
     8
 71
     3
 72
    20
 73
    16
 74
     0
 42
0.000000001
 43
0.0000000001
 40
14.71716680792275
 40
14.71716680792275
 40
14.71716680792275
 40
14.71716680792275
 40
39.02871279789515
 40
39.02871279789515
 40
39.02871279789515
 40
39.02957041819265
 40
39.02957041819265
 40
39.02957041819265
 40
194.8800461831695
 40
342.9826904264568
 40
397.2070656822365
 40
716.4597498718944
 40
959.5821257480533
 40
1130.824680482271
 40
1183.021084691133
 40
1183.021084691133
 40
1183.021084691133
 40
1183.021084691133
 10
659.9570299148482
 20
968.7815737669799
 30
0.0
 10
668.2900692898503
 20
968.0799686231519
 30
0.0
 10
676.6231086648526
 20
967.3783634793238
 30
0.0
 10
684.9561480398547
 20
966.676758335496
 30
0.0
 10
684.9564419982772
 20
966.6767335854938
 30
0.0
 10
684.9567359566997
 20
966.6767088354918
 30
0.0
 10
684.9570299150975
 20
966.676684085592
 30
0.0
 10
738.3764234163407
 20
962.1790250758985
 30
0.0
 10
840.9654623719074
 20
959.988067985224
 30
0.0
 10
943.5633644166696
 20
1032.922485277681
 30
0.0
 10
1116.875081906258
 20
1060.009477473913
 30
0.0
 10
1320.815238732293
 20
1006.369291981498
 30
0.0
 10
1569.403614219657
 20
1047.975054331479
 30
0.0
 10
1619.889275813812
 20
988.5451123544123
 30
0.0
 10
1742.556648731823
 20
952.4382518092286
 30
0.0
 10
1771.449402275518
 20
947.6400120729659
 30
0.0
  0
LINE
  5
68E5
330
254
100
AcDbEntity
  8
ALL_ASSEM_MEMBER
  6
Continuous
 62
     7
100
AcDbLine
 10
1922.853132983082
 20
-618.3053428292956
 30
0.0
 11
1859.213522675999
 21
-554.6657325222083
 31
0.0
  0
LINE
  5
68E7
330
254
100
AcDbEntity
  8
0
100
AcDbLine
 10
975.7968581352756
 20
683.2379464967089
 30
0.0
 11
1005.658572907233
 21
613.2831334124866
 31
0.0
  0
CIRCLE
  5
68F1
330
254
100
AcDbEntity
  8
0
100
AcDbCircle
 10
761.4570299150969
 20
458.2379464967091
 30
0.0
 40
7.0
  0
CIRCLE
  5
68F2
330
254
100
AcDbEntity
  8
0
100
AcDbCircle
 10
1811.457029915097
 20
458.2379464967091
 30
0.0
 40
7.0
  0
CIRCLE
  5
68F3
330
254
100
AcDbEntity
  8
0
100
AcDbCircle
 10
761.4570299150969
 20
-591.7620535032912
 30
0.0
 40
7.0
  0
CIRCLE
  5
68F4
330
254
100
AcDbEntity
  8
0
100
AcDbCircle
 10
1811.457029915097
 20
-591.7620535032912
 30
0.0
 40
7.0
  0
LINE
  5
690D
330
254
100
AcDbEntity
  8
ALL_ASSEM_MEMBER
  6
Continuous
 62
     7
100
AcDbLine
 10
1504.876923548186
 20
144.5867723179321
 30
0.0
 11
1478.159069370211
 21
117.8689181399571
 31
0.0
  0
LINE
  5
690E
330
254
100
AcDbEntity
  8
ALL_ASSEM_MEMBER
  6
Continuous
 62
     7
100
AcDbLine
 10
1497.80585573632
 20
151.6578401297976
 30
0.0
 11
1471.088001558346
 21
124.9399859518229
 31
0.0
  0
ARC
  5
690F
330
254
100
AcDbEntity
  8
ALL_ASSEM_MEMBER
  6
Continuous
 62
     7
100
AcDbCircle
 10
1487.982462553263
 20
134.7633791348749
 30
0.0
 40
15.0
100
AcDbArc
 50
244.52615152991
 51
25.47384847009412
  0
ARC
  5
6910
330
254
100
AcDbEntity
  8
ALL_ASSEM_MEMBER
  6
Continuous
 62
     7
100
AcDbCircle
 10
1487.982462553263
 20
134.7633791348749
 30
0.0
 40
15.0
100
AcDbArc
 50
64.52615152991
 51
205.4738484700941
  0
ARC
  5
6911
330
254
100
AcDbEntity
  8
ALL_ASSEM_MEMBER
  6
Continuous
 62
     7
100
AcDbCircle
 10
1487.982462553263
 20
134.7633791348749
 30
0.0
 40
6.0
100
AcDbArc
 50
101.4505227781737
 51
168.5494768178103
  0
ARC
  5
6912
330
254
100
AcDbEntity
  8
ALL_ASSEM_MEMBER
  6
Continuous
 62
     7
100
AcDbCircle
 10
1487.982462553263
 20
134.7633791348749
 30
0.0
 40
6.0
100
AcDbArc
 50
281.4505227781738
 51
348.5494768178102
  0
ARC
  5
6913
330
254
100
AcDbEntity
  8
ALL_ASSEM_MEMBER
  6
Continuous
 62
     7
100
AcDbCircle
 10
1487.982462553263
 20
134.7633791348749
 30
0.0
 40
5.299999446
100
AcDbArc
 50
115.751087053309
 51
154.2488688587927
  0
ARC
  5
6914
330
254
100
AcDbEntity
  8
ALL_ASSEM_MEMBER
  6
Continuous
 62
     7
100
AcDbCircle
 10
1487.982462553263
 20
134.7633791348749
 30
0.0
 40
5.299999446
100
AcDbArc
 50
295.7510870533089
 51
334.2488688587927
  0
ARC
  5
6915
330
254
100
AcDbEntity
  8
ALL_ASSEM_MEMBER
  6
Continuous
 62
     7
100
AcDbCircle
 10
1501.341437811779
 20
148.1223543933908
 30
0.0
 40
5.0
100
AcDbArc
 50
314.9999999789956
 51
135.0000000210035
  0
ARC
  5
6916
330
254
100
AcDbEntity
  8
ALL_ASSEM_MEMBER
  6
Continuous
 62
     7
100
AcDbCircle
 10
1474.623487294752
 20
121.4044038763639
 30
0.0
 40
5.0
100
AcDbArc
 50
134.9999999789956
 51
315.0000000210036
  0
LINE
  5
691C
330
254
100
AcDbEntity
  8
0
100
AcDbLine
 10
1719.617201694919
 20
560.7379464967086
 30
0.0
 11
1913.957029915097
 21
560.7379464967086
 31
0.0
  0
LINE
  5
691D
330
254
100
AcDbEntity
  8
0
100
AcDbLine
 10
658.9570299150969
 20
366.3981182765297
 30
0.0
 11
658.9570299150969
 21
560.7379464967086
 31
0.0
  0
LINE
  5
691E
330
254
100
AcDbEntity
  8
0
100
AcDbLine
 10
1913.957029915097
 20
-499.9222252831125
 30
0.0
 11
1913.957029915097
 21
-609.4092397613095
 31
0.0
  0
LINE
  5
691F
330
254
100
AcDbEntity
  8
0
100
AcDbLine
 10
853.2968581352758
 20
-694.2620535032911
 30
0.0
 11
658.9570299150969
 21
-694.2620535032911
 31
0.0
  0
LINE
  5
6921
330
254
100
AcDbEntity
  8
0
100
AcDbLine
 10
658.9570299150969
 20
2723.592277719961
 30
0.0
 11
1913.957029915097
 21
2723.592277719961
 31
0.0
  0
LINE
  5
6923
330
254
100
AcDbEntity
  8
0
100
AcDbLine
 10
1913.957029915097
 20
2723.592277719961
 30
0.0
 11
1913.957029915097
 21
3978.592277719961
 31
0.0
  0
LINE
  5
6925
330
254
100
AcDbEntity
  8
0
100
AcDbLine
 10
1913.957029915097
 20
3978.592277719961
 30
0.0
 11
658.9570299150969
 21
3978.592277719961
 31
0.0
  0
LINE
  5
6927
330
254
100
AcDbEntity
  8
0
100
AcDbLine
 10
658.9570299150969
 20
3978.592277719961
 30
0.0
 11
658.9570299150969
 21
2723.592277719961
 31
0.0
  0
LINE
  5
6928
330
254
100
AcDbEntity
  8
02__ASM_ALL_AXES
  6
CENTER
 62
     2
100
AcDbLine
 10
1286.457029915097
 20
2581.092277719961
 30
0.0
 11
1286.457029915097
 21
4121.092277719961
 31
0.0
  0
LINE
  5
6929
330
254
100
AcDbEntity
  8
02__ASM_ALL_AXES
  6
CENTER
 62
     2
100
AcDbLine
 10
516.4570299150969
 20
3351.092277719961
 30
0.0
 11
2056.457029915097
 21
3351.092277719961
 31
0.0
  0
CIRCLE
  5
699A
330
254
100
AcDbEntity
  8
0
100
AcDbCircle
 10
761.4570299150969
 20
2826.092277719961
 30
0.0
 40
7.0
  0
CIRCLE
  5
699B
330
254
100
AcDbEntity
  8
0
100
AcDbCircle
 10
1811.457029915097
 20
2826.092277719961
 30
0.0
 40
7.0
  0
CIRCLE
  5
699C
330
254
100
AcDbEntity
  8
0
100
AcDbCircle
 10
761.4570299150969
 20
3876.092277719961
 30
0.0
 40
7.0
  0
CIRCLE
  5
699D
330
254
100
AcDbEntity
  8
0
100
AcDbCircle
 10
1811.457029915097
 20
3876.092277719961
 30
0.0
 40
7.0
  0
CIRCLE
  5
69B3
330
254
100
AcDbEntity
  8
0
100
AcDbCircle
 10
1286.457029915097
 20
3351.092277719961
 30
0.0
 40
337.5000000002526
  0
CIRCLE
  5
69B7
330
254
100
AcDbEntity
  8
02__ASM_ALL_AXES
  6
CENTER
 62
     2
100
AcDbCircle
 10
1286.457029915097
 20
3351.092277719961
 30
0.0
 40
430.0
  0
INSERT
  5
69C1
102
{ACAD_REACTORS
330
69CA
102
}
330
254
100
AcDbEntity
  8
0
100
AcDbBlockReference
  2
*U100
 10
0.0
 20
619.5289616115915
 30
0.0
  0
LINE
  5
69DD
330
254
100
AcDbEntity
  8
0
100
AcDbLine
 10
1911.957029915097
 20
3976.592277719961
 30
0.0
 11
660.9570299150967
 21
3976.592277719961
 31
0.0
  0
LINE
  5
69DE
330
254
100
AcDbEntity
  8
0
100
AcDbLine
 10
660.9570299150967
 20
3976.592277719961
 30
0.0
 11
660.9570299150971
 21
2725.592277719961
 31
0.0
  0
LINE
  5
69DF
330
254
100
AcDbEntity
  8
0
100
AcDbLine
 10
1911.957029915097
 20
2725.592277719961
 30
0.0
 11
1911.957029915097
 21
3976.592277719961
 31
0.0
  0
LINE
  5
69E0
330
254
100
AcDbEntity
  8
0
100
AcDbLine
 10
660.9570299150971
 20
2725.592277719961
 30
0.0
 11
1911.957029915097
 21
2725.592277719961
 31
0.0
  0
CIRCLE
  5
6A4D
330
254
100
AcDbEntity
  8
0
100
AcDbCircle
 10
1286.457029915097
 20
3351.092277719961
 30
0.0
 40
389.2430609057535
  0
LINE
  5
7BA5
330
254
100
AcDbEntity
  8
ALL_ASSEM_MEMBER
  6
Continuous
 62
     7
100
AcDbLine
 10
536.4570299150968
 20
2277.6400120721
 30
0.0
 11
606.4570299150971
 21
2397.640012072966
 31
0.0
  0
LWPOLYLINE
  5
814D
330
254
100
AcDbEntity
  8
0
100
AcDbPolyline
 90
        8
 70
     1
 43
0.0
 10
536.457029915097
 20
-377.4222252831123
 10
975.7968581352754
 20
-816.7620535032908
 10
1597.117201694918
 20
-816.7620535032913
 10
2036.457029915097
 20
-377.4222252831129
 10
2036.457029915097
 20
243.8981182765296
 10
1597.117201694919
 20
683.2379464967086
 10
975.7968581352756
 20
683.2379464967089
 10
536.4570299150967
 20
243.8981182765294
  0
LWPOLYLINE
  5
814E
330
254
100
AcDbEntity
  8
0
100
AcDbPolyline
 90
        8
 70
     1
 43
0.0
 10
606.4118429990704
 20
-347.5605105109062
 10
1004.146959830232
 20
-746.1811097815144
 10
1567.255486922463
 20
-746.8072404190689
 10
1965.876086193071
 20
-349.0721235879068
 10
1966.502216830626
 20
214.036403504324
 10
1568.767099999463
 20
612.6570027749322
 10
1005.658572907233
 20
613.2831334124866
 10
607.0379736366244
 20
215.5480165813242
  0
LINE
  5
8150
330
254
100
AcDbEntity
  8
ALL_ASSEM_MEMBER
  6
Continuous
 62
     7
100
AcDbLine
 10
536.4570299150968
 20
1257.64001207344
 30
0.0
 11
659.8535985173482
 21
1007.849387371466
 31
0.0
  0
LINE
  5
8157
330
254
100
AcDbEntity
  8
0
100
AcDbLine
 10
606.4570299150971
 20
2397.640012072966
 30
0.0
 11
1286.457029915097
 21
2397.640012072966
 31
0.0
  0
LINE
  5
8158
330
254
100
AcDbEntity
  8
ALL_ASSEM_MEMBER
  6
Continuous
 62
     7
100
AcDbLine
 10
659.9570299148481
 20
947.6400120729656
 30
0.0
 11
659.9570299148481
 21
1007.406482481964
 31
0.0
  0
LINE
  5
8159
330
254
100
AcDbEntity
  8
0
100
AcDbLine
 10
663.9570299150971
 20
947.6400120729656
 30
0.0
 11
659.9570299148481
 21
947.6400120729656
 31
0.0
  0
LINE
  5
815A
330
254
100
AcDbEntity
  8
ALL_ASSEM_MEMBER
  6
Continuous
 62
     7
100
AcDbLine
 10
946.4570299148444
 20
1025.203751540548
 30
0.0
 11
946.4570299148444
 21
1023.140012072966
 31
0.0
  0
LINE
  5
815B
330
254
100
AcDbEntity
  8
ALL_ASSEM_MEMBER
  6
Continuous
 62
     7
100
AcDbLine
 10
948.9570299148445
 20
1026.241498083818
 30
0.0
 11
948.9570299148445
 21
1023.138789377965
 31
0.0
  0
LINE
  5
815C
330
254
100
AcDbEntity
  8
ALL_ASSEM_MEMBER
  6
Continuous
 62
     7
100
AcDbLine
 10
911.4570299148445
 20
958.1400120724657
 30
0.0
 11
895.7070299148068
 21
947.6400120729656
 31
0.0
  0
LINE
  5
815D
330
254
100
AcDbEntity
  8
ALL_ASSEM_MEMBER
  6
Continuous
 62
     7
100
AcDbLine
 10
912.8395465928452
 20
956.057063794965
 30
0.0
 11
897.2139690093436
 21
945.6400120729659
 31
0.0
  0
ARC
  5
815E
330
254
100
AcDbEntity
  8
ALL_ASSEM_MEMBER
  6
Continuous
 62
     7
100
AcDbCircle
 10
868.4570678253448
 20
1023.216914736464
 30
0.0
 40
80.5
100
AcDbArc
 50
303.4586574472046
 51
359.9443943600918
  0
ARC
  5
815F
330
254
100
AcDbEntity
  8
ALL_ASSEM_MEMBER
  6
Continuous
 62
     7
100
AcDbCircle
 10
868.4570678253448
 20
1023.216914736464
 30
0.0
 40
78.0
100
AcDbArc
 50
303.4549781955087
 51
359.9435102721076
  0
LINE
  5
8162
330
254
100
AcDbEntity
  8
ALL_ASSEM_MEMBER
  6
Continuous
 62
     7
100
AcDbLine
 10
1661.45702991535
 20
958.1400120724657
 30
0.0
 11
1677.207029915388
 21
947.6400120729656
 31
0.0
  0
LINE
  5
8163
330
254
100
AcDbEntity
  8
ALL_ASSEM_MEMBER
  6
Continuous
 62
     7
100
AcDbLine
 10
1660.074513237349
 20
956.057063794965
 30
0.0
 11
1675.700090820851
 21
945.6400120729659
 31
0.0
  0
ARC
  5
8164
330
254
100
AcDbEntity
  8
ALL_ASSEM_MEMBER
  6
Continuous
 62
     7
100
AcDbCircle
 10
1704.456992004849
 20
1023.216914736464
 30
0.0
 40
80.5
100
AcDbArc
 50
201.2533381523664
 51
236.5413425527939
  0
ARC
  5
8165
330
254
100
AcDbEntity
  8
ALL_ASSEM_MEMBER
  6
Continuous
 62
     7
100
AcDbCircle
 10
1704.456992004849
 20
1023.216914736464
 30
0.0
 40
78.0
100
AcDbArc
 50
203.2686589304534
 51
236.5450218044895
  0
LINE
  5
8166
330
254
100
AcDbEntity
  8
ALL_ASSEM_MEMBER
  6
Continuous
 62
     7
100
AcDbLine
 10
2036.457029915097
 20
1257.64001207344
 30
0.0
 11
2036.457029915097
 21
2277.6400120721
 31
0.0
  0
LINE
  5
8167
330
254
100
AcDbEntity
  8
ALL_ASSEM_MEMBER
  6
Continuous
 62
     7
100
AcDbLine
 10
2036.457029915097
 20
2277.6400120721
 30
0.0
 11
1966.457029915097
 21
2397.640012072966
 31
0.0
  0
LINE
  5
8168
330
254
100
AcDbEntity
  8
ALL_ASSEM_MEMBER
  6
Continuous
 62
     7
100
AcDbLine
 10
2036.457029915097
 20
1257.64001207344
 30
0.0
 11
1913.060461312846
 21
1007.849387371466
 31
0.0
  0
LINE
  5
8169
330
254
100
AcDbEntity
  8
0
100
AcDbLine
 10
1966.457029915097
 20
2397.640012072966
 30
0.0
 11
1286.457029915097
 21
2397.640012072966
 31
0.0
  0
LINE
  5
816A
330
254
100
AcDbEntity
  8
ALL_ASSEM_MEMBER
  6
Continuous
 62
     7
100
AcDbLine
 10
1912.957029915346
 20
947.6400120729656
 30
0.0
 11
1912.957029915346
 21
1007.406482481964
 31
0.0
  0
LINE
  5
816B
330
254
100
AcDbEntity
  8
0
100
AcDbLine
 10
1908.957029915097
 20
947.6400120729656
 30
0.0
 11
1912.957029915346
 21
947.6400120729656
 31
0.0
  0
LWPOLYLINE
  5
816E
330
254
100
AcDbEntity
  8
0
100
AcDbPolyline
 90
        4
 70
     0
 43
0.0
 10
658.9570299150968
 20
3784.252449499782
 10
536.4570299150967
 20
3661.752449499782
 10
536.457029915097
 20
3040.43210594014
 10
658.9570299150968
 20
2917.93210594014
  0
LINE
  5
816F
330
254
100
AcDbEntity
  8
0
100
AcDbLine
 10
659.8535985173482
 20
1007.849387371466
 30
0.0
 11
909.3898365855986
 21
1007.849387371466
 31
0.0
  0
LINE
  5
8178
330
254
100
AcDbEntity
  8
0
100
AcDbLine
 10
975.7968581352754
 20
2601.092277719962
 30
0.0
 11
1026.495534164305
 21
2723.592277719961
 31
0.0
  0
LINE
  5
8179
330
254
100
AcDbEntity
  8
0
100
AcDbLine
 10
1597.117201694919
 20
2601.092277719962
 30
0.0
 11
1546.418525665889
 21
2723.592277719961
 31
0.0
  0
LINE
  5
817A
330
254
100
AcDbEntity
  8
0
100
AcDbLine
 10
975.7968581352754
 20
4101.09227771996
 30
0.0
 11
1026.495534164304
 21
3978.592277719961
 31
0.0
  0
LINE
  5
817B
330
254
100
AcDbEntity
  8
0
100
AcDbLine
 10
1597.117201694919
 20
4101.09227771996
 30
0.0
 11
1546.418525665889
 21
3978.592277719961
 31
0.0
  0
LINE
  5
817C
330
254
100
AcDbEntity
  8
0
100
AcDbLine
 10
536.4570299150967
 20
3661.752449499782
 30
0.0
 11
658.9570299150969
 21
3611.011288109077
 31
0.0
  0
LINE
  5
817D
330
254
100
AcDbEntity
  8
0
100
AcDbLine
 10
536.4570299150967
 20
3040.43210594014
 30
0.0
 11
658.9570299150969
 21
3091.173267330844
 31
0.0
  0
LINE
  5
817E
330
254
100
AcDbEntity
  8
0
100
AcDbLine
 10
2036.457029915097
 20
3661.752449499782
 30
0.0
 11
1913.957029915097
 21
3611.011288109077
 31
0.0
  0
LINE
  5
817F
330
254
100
AcDbEntity
  8
0
100
AcDbLine
 10
2036.457029915097
 20
3040.43210594014
 30
0.0
 11
1913.957029915097
 21
3091.173267330844
 31
0.0
  0
LWPOLYLINE
  5
8180
330
254
100
AcDbEntity
  8
0
100
AcDbPolyline
 90
        4
 70
     0
 43
0.0
 10
1719.617201694919
 20
3978.592277719961
 10
1597.117201694919
 20
4101.092277719961
 10
975.7968581352756
 20
4101.092277719961
 10
853.2968581352758
 20
3978.592277719961
  0
LWPOLYLINE
  5
8182
330
254
100
AcDbEntity
  8
0
100
AcDbPolyline
 90
        4
 70
     0
 43
0.0
 10
853.296858135276
 20
2723.592277719961
 10
975.7968581352754
 20
2601.092277719962
 10
1597.117201694918
 20
2601.092277719962
 10
1719.617201694918
 20
2723.592277719961
  0
LWPOLYLINE
  5
8183
330
254
100
AcDbEntity
  8
0
100
AcDbPolyline
 90
        4
 70
     0
 43
0.0
 10
1913.957029915097
 20
2917.93210594014
 10
2036.457029915097
 20
3040.43210594014
 10
2036.457029915097
 20
3661.752449499783
 10
1913.957029915097
 20
3784.252449499783
  0
LINE
  5
8184
330
254
100
AcDbEntity
  8
0
100
AcDbLine
 10
1004.146959830232
 20
-746.1811097815144
 30
0.0
 11
975.7968581352754
 21
-816.7620535032908
 31
0.0
  0
LINE
  5
8185
330
254
100
AcDbEntity
  8
0
100
AcDbLine
 10
1567.255486922463
 20
-746.8072404190689
 30
0.0
 11
1597.117201694918
 21
-816.7620535032913
 31
0.0
  0
LINE
  5
8186
330
254
100
AcDbEntity
  8
0
100
AcDbLine
 10
606.4118429990704
 20
-347.5605105109062
 30
0.0
 11
536.457029915097
 21
-377.4222252831123
 31
0.0
  0
LINE
  5
8187
330
254
100
AcDbEntity
  8
0
100
AcDbLine
 10
1965.876086193071
 20
-349.0721235879068
 30
0.0
 11
2036.457029915097
 21
-377.4222252831129
 31
0.0
  0
LINE
  5
8188
330
254
100
AcDbEntity
  8
0
100
AcDbLine
 10
1004.146959830232
 20
612.6570027749322
 30
0.0
 11
975.7968581352754
 21
683.2379464967086
 31
0.0
  0
LINE
  5
8189
330
254
100
AcDbEntity
  8
0
100
AcDbLine
 10
1567.255486922463
 20
613.2831334124866
 30
0.0
 11
1597.117201694918
 21
683.2379464967091
 31
0.0
  0
LINE
  5
818A
330
254
100
AcDbEntity
  8
0
100
AcDbLine
 10
606.4118429990704
 20
214.036403504324
 30
0.0
 11
536.457029915097
 21
243.8981182765301
 31
0.0
  0
LINE
  5
818B
330
254
100
AcDbEntity
  8
0
100
AcDbLine
 10
1965.876086193071
 20
215.5480165813246
 30
0.0
 11
2036.457029915097
 21
243.8981182765307
 31
0.0
  0
LINE
  5
818E
330
254
100
AcDbEntity
  8
0
100
AcDbLine
 10
1829.104216173114
 20
-694.2620535032911
 30
0.0
 11
1719.617201694918
 21
-694.2620535032911
 31
0.0
  0
LINE
  5
818F
330
254
100
AcDbEntity
  8
0
100
AcDbLine
 10
1913.957029915097
 20
-627.2014458972856
 30
0.0
 11
1913.957029915097
 21
-694.2620535032911
 31
0.0
  0
CIRCLE
  5
81A1
330
254
100
AcDbEntity
  8
0
100
AcDbCircle
 10
1286.457029915097
 20
-66.7620535032911
 30
0.0
 40
570.0
  0
LINE
  5
81A5
330
254
100
AcDbEntity
  8
ALL_ASSEM_MEMBER
  6
Continuous
 62
     7
100
AcDbLine
 10
1075.108204093873
 20
-285.1819471363797
 30
0.0
 11
1101.826058271849
 21
-258.464092958405
 31
0.0
  0
LINE
  5
81A6
330
254
100
AcDbEntity
  8
ALL_ASSEM_MEMBER
  6
Continuous
 62
     7
100
AcDbLine
 10
1068.037136282008
 20
-278.1108793245144
 30
0.0
 11
1094.754990459983
 21
-251.3930251465394
 31
0.0
  0
ARC
  5
81A7
330
254
100
AcDbEntity
  8
ALL_ASSEM_MEMBER
  6
Continuous
 62
     7
100
AcDbCircle
 10
1084.931597276931
 20
-268.2874861414568
 30
0.0
 40
15.0
100
AcDbArc
 50
244.5261515299035
 51
25.47384847008477
  0
ARC
  5
81A8
330
254
100
AcDbEntity
  8
ALL_ASSEM_MEMBER
  6
Continuous
 62
     7
100
AcDbCircle
 10
1084.931597276931
 20
-268.2874861414568
 30
0.0
 40
15.0
100
AcDbArc
 50
64.52615152990347
 51
205.4738484700848
  0
ARC
  5
81A9
330
254
100
AcDbEntity
  8
ALL_ASSEM_MEMBER
  6
Continuous
 62
     7
100
AcDbCircle
 10
1084.931597276931
 20
-268.2874861414568
 30
0.0
 40
6.0
100
AcDbArc
 50
101.4505231821873
 51
168.5494772218275
  0
ARC
  5
81AA
330
254
100
AcDbEntity
  8
ALL_ASSEM_MEMBER
  6
Continuous
 62
     7
100
AcDbCircle
 10
1084.931597276931
 20
-268.2874861414568
 30
0.0
 40
6.0
100
AcDbArc
 50
281.4505231821873
 51
348.5494772218275
  0
ARC
  5
81AB
330
254
100
AcDbEntity
  8
ALL_ASSEM_MEMBER
  6
Continuous
 62
     7
100
AcDbCircle
 10
1084.931597276931
 20
-268.2874861414568
 30
0.0
 40
5.299999446
100
AcDbArc
 50
115.7511311412055
 51
154.24891294669
  0
ARC
  5
81AC
330
254
100
AcDbEntity
  8
ALL_ASSEM_MEMBER
  6
Continuous
 62
     7
100
AcDbCircle
 10
1084.931597276931
 20
-268.2874861414568
 30
0.0
 40
5.299999446
100
AcDbArc
 50
295.7511311412055
 51
334.24891294669
  0
ARC
  5
81AD
330
254
100
AcDbEntity
  8
ALL_ASSEM_MEMBER
  6
Continuous
 62
     7
100
AcDbCircle
 10
1071.572622018415
 20
-281.6464613999731
 30
0.0
 40
5.0
100
AcDbArc
 50
134.9999999789969
 51
315.0000000210123
  0
ARC
  5
81AE
330
254
100
AcDbEntity
  8
ALL_ASSEM_MEMBER
  6
Continuous
 62
     7
100
AcDbCircle
 10
1098.290572535442
 20
-254.9285108829458
 30
0.0
 40
5.0
100
AcDbArc
 50
314.9999999789877
 51
135.0000000210123
  0
LINE
  5
81B1
330
254
100
AcDbEntity
  8
0
100
AcDbLine
 10
536.4570299150968
 20
2277.6400120721
 30
0.0
 11
2036.457029915097
 21
2277.6400120721
 31
0.0
  0
LINE
  5
81B2
330
254
100
AcDbEntity
  8
0
100
AcDbLine
 10
536.4570299150968
 20
1257.64001207344
 30
0.0
 11
2036.457029915097
 21
1257.64001207344
 31
0.0
  0
LINE
  5
81B3
330
254
100
AcDbEntity
  8
0
100
AcDbLine
 10
1602.777335737083
 20
1007.849387371466
 30
0.0
 11
1912.957029915346
 21
1007.849387371466
 31
0.0
  0
LINE
  5
81B6
330
254
100
AcDbEntity
  8
0
100
AcDbLine
 10
975.7968581352754
 20
1257.640012073439
 30
0.0
 11
975.7968581352754
 21
2277.6400120721
 31
0.0
  0
LWPOLYLINE
  5
81B7
330
254
100
AcDbEntity
  8
0
100
AcDbPolyline
 90
        2
 70
     0
 43
0.0
 10
975.7968581352754
 20
2277.6400120721
 10
1005.658572907233
 20
2397.640012072966
  0
LINE
  5
81B9
330
254
100
AcDbEntity
  8
0
100
AcDbLine
 10
975.7968581352754
 20
1257.64001207344
 30
0.0
 11
1019.134684903177
 21
1044.116037297815
 31
0.0
  0
LINE
  5
81BA
330
254
100
AcDbEntity
  8
0
100
AcDbLine
 10
1597.117201694919
 20
1257.640012073439
 30
0.0
 11
1597.117201694919
 21
2277.6400120721
 31
0.0
  0
LWPOLYLINE
  5
81BB
330
254
100
AcDbEntity
  8
0
100
AcDbPolyline
 90
        2
 70
     0
 43
0.0
 10
1597.117201694919
 20
2277.6400120721
 10
1567.255486922961
 20
2397.640012072966
  0
LINE
  5
81BC
330
254
100
AcDbEntity
  8
0
100
AcDbLine
 10
1597.117201694919
 20
1257.64001207344
 30
0.0
 11
1550.498997780552
 21
1027.953732463577
 31
0.0
  0
HATCH
  5
8259
330
254
100
AcDbEntity
  8
0
  6
Continuous
 62
     2
100
AcDbHatch
 10
0.0
 20
0.0
 30
0.0
210
0.0
220
0.0
230
1.0
  2
DEFAULT__112
 70
     0
 71
     0
 91
        2
 92
        1
 93
        4
 72
     1
 10
1821.616426531764
 20
1066.010240299996
 11
1823.116426531764
 21
1066.010240299996
 72
     1
 10
1823.116426531764
 20
1066.010240299996
 11
1823.116426531764
 21
1061.010240298396
 72
     1
 10
1823.116426531764
 20
1061.010240298395
 11
1821.616426531764
 21
1061.010240298395
 72
     1
 10
1821.616426531764
 20
1061.010240298395
 11
1821.616426531764
 21
1066.010240299996
 97
        0
 92
        2
 72
     0
 73
     1
 93
      180
 10
1823.116426531764
 20
1086.010240299996
 10
1821.616426531764
 20
1086.010240299996
 10
1821.616426531764
 20
1086.010240299996
 10
1821.616426531764
 20
1110.776710707595
 10
1821.616426531764
 20
1110.776710707595
 10
1821.616475238164
 20
1110.790465415396
 10
1821.616597061163
 20
1110.804206803196
 10
1821.616792055964
 20
1110.817935107996
 10
1821.617060278164
 20
1110.831650567595
 10
1821.617401782964
 20
1110.845353419196
 10
1821.617816626164
 20
1110.859043899996
 10
1821.618304862964
 20
1110.872722247596
 10
1821.618866548564
 20
1110.886388699196
 10
1821.619501738964
 20
1110.900043492396
 10
1821.620210489163
 20
1110.913686864396
 10
1821.620992854564
 20
1110.927319052396
 10
1821.621848890964
 20
1110.940940294195
 10
1821.622778653564
 20
1110.954550826795
 10
1821.623782197764
 20
1110.968150887795
 10
1821.624859578964
 20
1110.981740714396
 10
1821.626010852764
 20
1110.995320543995
 10
1821.627236074564
 20
1111.008890614196
 10
1821.628535299764
 20
1111.022451161996
 10
1821.629908583764
 20
1111.036002424996
 10
1821.631355981963
 20
1111.049544640596
 10
1821.632877549764
 20
1111.063078045996
 10
1821.634473342764
 20
1111.076602878595
 10
1821.636143416364
 20
1111.090119375996
 10
1821.637887825964
 20
1111.103627775196
 10
1821.639706626964
 20
1111.117128313996
 10
1821.641599874764
 20
1111.130621229396
 10
1821.643567624764
 20
1111.144106758795
 10
1821.645609932564
 20
1111.157585139795
 10
1821.647726816564
 20
1111.171056451396
 10
1821.649918147364
 20
1111.184520139796
 10
1821.652183758764
 20
1111.197975492795
 10
1821.654523484364
 20
1111.211421798396
 10
1821.656937157964
 20
1111.224858344195
 10
1821.659424613164
 20
1111.238284418396
 10
1821.661985683764
 20
1111.251699308795
 10
1821.664620203364
 20
1111.265102303396
 10
1821.667328005764
 20
1111.278492689796
 10
1821.670108924764
 20
1111.291869756196
 10
1821.672962793764
 20
1111.305232790196
 10
1821.675889446564
 20
1111.318581079996
 10
1821.678888716964
 20
1111.331913913196
 10
1821.681960438764
 20
1111.345230577995
 10
1821.685104445364
 20
1111.358530361995
 10
1821.688320570764
 20
1111.371812553396
 10
1821.691608648564
 20
1111.385076439596
 10
1821.694968512164
 20
1111.398321308996
 10
1821.698399995764
 20
1111.411546449195
 10
1821.701902932764
 20
1111.424751148196
 10
1821.705477156964
 20
1111.437934693996
 10
1821.709122502164
 20
1111.451096374196
 10
1821.712838801764
 20
1111.464235476796
 10
1821.716625889764
 20
1111.477351289796
 10
1821.720483599564
 20
1111.490443101196
 10
1821.724411765164
 20
1111.503510198396
 10
1821.728410220164
 20
1111.516551869796
 10
1821.732478798364
 20
1111.529567403196
 10
1821.736617370164
 20
1111.542556244596
 10
1821.740825954163
 20
1111.555518472995
 10
1821.745104605764
 20
1111.568454325996
 10
1821.749453380563
 20
1111.581364040995
 10
1821.753872333764
 20
1111.594247855195
 10
1821.758361521164
 20
1111.607106005996
 10
1821.762920997764
 20
1111.619938730795
 10
1821.767550819164
 20
1111.632746267195
 10
1821.772251040764
 20
1111.645528852196
 10
1821.777021718164
 20
1111.658286723196
 10
1821.781862906564
 20
1111.671020117795
 10
1821.786774661764
 20
1111.683729273195
 10
1821.791757038764
 20
1111.696414426996
 10
1821.796810093164
 20
1111.709075816196
 10
1821.801933880364
 20
1111.721713678595
 10
1821.807128455963
 20
1111.734328251196
 10
1821.812393875164
 20
1111.746919771396
 10
1821.817730193564
 20
1111.759488476796
 10
1821.823137466564
 20
1111.772034604796
 10
1821.828615749564
 20
1111.784558392396
 10
1821.834165097964
 20
1111.797060077196
 10
1821.839785567364
 20
1111.809539896595
 10
1821.845477212964
 20
1111.821998087996
 10
1821.851240090164
 20
1111.834434888596
 10
1821.857074254763
 20
1111.846850535995
 10
1821.862979761964
 20
1111.859245267196
 10
1821.868956667164
 20
1111.871619319996
 10
1821.875005025764
 20
1111.883972931596
 10
1821.875005025764
 20
1111.883972931596
 10
1831.897056755963
 20
1132.171527041196
 10
1831.897056755963
 20
1132.171527041196
 10
1831.942200008164
 20
1132.150880543795
 10
1831.987336081164
 20
1132.130160102996
 10
1832.032464975364
 20
1132.109365719196
 10
1832.077586690364
 20
1132.088497392196
 10
1832.122701226364
 20
1132.067555122195
 10
1832.167808583564
 20
1132.046538908996
 10
1832.212908761564
 20
1132.025448752796
 10
1832.258001760564
 20
1132.004284653395
 10
1832.303087580764
 20
1131.983046610796
 10
1832.348166221764
 20
1131.961734625196
 10
1832.393237683764
 20
1131.940348696395
 10
1832.438301966964
 20
1131.918888824596
 10
1832.483359070964
 20
1131.897355009596
 10
1832.528408995964
 20
1131.875747251396
 10
1832.573451741964
 20
1131.854065550196
 10
1832.618487309164
 20
1131.832309905996
 10
1832.663515697164
 20
1131.810480318396
 10
1832.708536906164
 20
1131.788576787996
 10
1832.753550936164
 20
1131.766599314196
 10
1832.798557787164
 20
1131.744547897396
 10
1832.843557459164
 20
1131.722422537595
 10
1832.888549952364
 20
1131.700223234596
 10
1832.933535266364
 20
1131.677949988396
 10
1832.978513401364
 20
1131.655602799195
 10
1833.023484357364
 20
1131.633181666796
 10
1833.068448134364
 20
1131.610686591195
 10
1833.113404732364
 20
1131.588117572596
 10
1833.158354151364
 20
1131.565474610995
 10
1833.203296391364
 20
1131.542757706196
 10
1833.248231452364
 20
1131.519966858196
 10
1833.248231452364
 20
1131.519966858196
 10
1823.219857929364
 20
1111.219615597196
 10
1823.219857929364
 20
1111.219615597196
 10
1823.216106857564
 20
1111.211925378596
 10
1823.212424915964
 20
1111.204215247196
 10
1823.208812020964
 20
1111.196484845796
 10
1823.205268088964
 20
1111.188733816996
 10
1823.201793036964
 20
1111.180961802995
 10
1823.198386780964
 20
1111.173168446996
 10
1823.195049237964
 20
1111.165353391196
 10
1823.191780324164
 20
1111.157516278395
 10
1823.188579956364
 20
1111.149656750995
 10
1823.185448050763
 20
1111.141774451996
 10
1823.182384524364
 20
1111.133869023595
 10
1823.179389293164
 20
1111.125940108595
 10
1823.176462274164
 20
1111.117987349595
 10
1823.173603383764
 20
1111.110010389196
 10
1823.170812538364
 20
1111.102008869996
 10
1823.168089654764
 20
1111.093982434596
 10
1823.165434649164
 20
1111.085930725795
 10
1823.162847438364
 20
1111.077853385795
 10
1823.160327994363
 20
1111.069750295796
 10
1823.157876512164
 20
1111.061622289596
 10
1823.155493241964
 20
1111.053470439596
 10
1823.153178434164
 20
1111.045295817596
 10
1823.150932339164
 20
1111.037099495796
 10
1823.148755207164
 20
1111.028882546596
 10
1823.146647288964
 20
1111.020646042196
 10
1823.144608834564
 20
1111.012391054396
 10
1823.142640094564
 20
1111.004118655796
 10
1823.140741319163
 20
1110.995829918196
 10
1823.138912758963
 20
1110.987525913996
 10
1823.137154664164
 20
1110.979207715395
 10
1823.135467285364
 20
1110.970876394396
 10
1823.133850872564
 20
1110.962533023196
 10
1823.132305676564
 20
1110.954178674195
 10
1823.130831947564
 20
1110.945814419196
 10
1823.129429935964
 20
1110.937441330596
 10
1823.128099892164
 20
1110.929060480396
 10
1823.126842010763
 20
1110.920672702796
 10
1823.125656263963
 20
1110.912277878395
 10
1823.124542568564
 20
1110.903875649996
 10
1823.123500840964
 20
1110.895465660196
 10
1823.122530997564
 20
1110.887047551396
 10
1823.121632955164
 20
1110.878620966196
 10
1823.120806629964
 20
1110.870185547595
 10
1823.120051938763
 20
1110.861740937796
 10
1823.119368798164
 20
1110.853286779595
 10
1823.118757124364
 20
1110.844822715596
 10
1823.118216834364
 20
1110.836348388396
 10
1823.117747844164
 20
1110.827863440595
 10
1823.117350070764
 20
1110.819367514796
 10
1823.117023430564
 20
1110.810860253796
 10
1823.116767839964
 20
1110.802341299796
 10
1823.116583215564
 20
1110.793810295796
 10
1823.116469473963
 20
1110.785266884195
 10
1823.116426531764
 20
1110.776710707595
 10
1823.116426531764
 20
1110.776710707595
 97
        0
 75
     0
 76
     0
 52
325.0
 41
1.1654998564
 77
     0
 78
     1
 53
325.0
 43
1077.819385252164
 44
1002.823441630396
 45
0.6685032542
 46
0.9547215899999999
 79
     0
 98
        1
 10
1077.819385252164
 20
1002.823441630396
  0
HATCH
  5
825A
330
254
100
AcDbEntity
  8
0
  6
Continuous
 62
     2
100
AcDbHatch
 10
0.0
 20
0.0
 30
0.0
210
0.0
220
0.0
230
1.0
  2
DEFAULT__114
 70
     0
 71
     0
 91
        2
 92
        2
 72
     0
 73
     1
 93
      850
 10
1815.616426531164
 20
1054.010240298396
 10
1815.631610407164
 20
1054.010286260995
 10
1815.646783030164
 20
1054.010407278596
 10
1815.661944574964
 20
1054.010603380995
 10
1815.677095216564
 20
1054.010874597996
 10
1815.692235130164
 20
1054.011220959396
 10
1815.707364490764
 20
1054.011642494995
 10
1815.722483473364
 20
1054.012139234796
 10
1815.737592252963
 20
1054.012711208395
 10
1815.752691004564
 20
1054.013358445595
 10
1815.767779903363
 20
1054.014080976395
 10
1815.782859124164
 20
1054.014878830596
 10
1815.797928842164
 20
1054.015752037795
 10
1815.812989232164
 20
1054.016700627996
 10
1815.828040469564
 20
1054.017724630996
 10
1815.843082728964
 20
1054.018824076396
 10
1815.858116185763
 20
1054.019998994395
 10
1815.873141014764
 20
1054.021249414596
 10
1815.888157391164
 20
1054.022575366596
 10
1815.903165489763
 20
1054.023976880596
 10
1815.918165485764
 20
1054.025453986196
 10
1815.933157554164
 20
1054.027006713395
 10
1815.948141869964
 20
1054.028635091595
 10
1815.963118608164
 20
1054.030339151196
 10
1815.978087943964
 20
1054.032118921396
 10
1815.993050052164
 20
1054.033974432595
 10
1816.008005107964
 20
1054.035905714196
 10
1816.022953169564
 20
1054.037912776196
 10
1816.037893828764
 20
1054.039995549196
 10
1816.052826560164
 20
1054.042153943595
 10
1816.067750838963
 20
1054.044387870196
 10
1816.082666139964
 20
1054.046697239196
 10
1816.097571938164
 20
1054.049081961395
 10
1816.112467708363
 20
1054.051541947196
 10
1816.127352925364
 20
1054.054077107196
 10
1816.142227064564
 20
1054.056687352195
 10
1816.157089600364
 20
1054.059372592396
 10
1816.171940007764
 20
1054.062132738595
 10
1816.186777761964
 20
1054.064967701195
 10
1816.201602337563
 20
1054.067877390996
 10
1816.216413209764
 20
1054.070861718196
 10
1816.231209853164
 20
1054.073920593595
 10
1816.245991742964
 20
1054.077053927596
 10
1816.260758353764
 20
1054.080261630995
 10
1816.275509160964
 20
1054.083543614195
 10
1816.290243638964
 20
1054.086899787596
 10
1816.304961262964
 20
1054.090330062195
 10
1816.319661507764
 20
1054.093834347995
 10
1816.334343848363
 20
1054.097412555996
 10
1816.349007759764
 20
1054.101064596596
 10
1816.363652716565
 20
1054.104790380395
 10
1816.378278193963
 20
1054.108589817795
 10
1816.392883666764
 20
1054.112462819396
 10
1816.407468643564
 20
1054.116409290996
 10
1816.422032768164
 20
1054.120429117995
 10
1816.436575717364
 20
1054.124522181596
 10
1816.451097168564
 20
1054.128688362395
 10
1816.465596799164
 20
1054.132927540996
 10
1816.480074286164
 20
1054.137239598596
 10
1816.494529306964
 20
1054.141624415596
 10
1816.508961538764
 20
1054.146081872796
 10
1816.523370658564
 20
1054.150611851396
 10
1816.537756343964
 20
1054.155214231796
 10
1816.552118271964
 20
1054.159888894795
 10
1816.566456119764
 20
1054.164635721396
 10
1816.580769564763
 20
1054.169454592196
 10
1816.595058284164
 20
1054.174345388196
 10
1816.609321955164
 20
1054.179307989795
 10
1816.623560254964
 20
1054.184342278196
 10
1816.637772860764
 20
1054.189448134196
 10
1816.651959449964
 20
1054.194625438196
 10
1816.666119699563
 20
1054.199874071195
 10
1816.680253286764
 20
1054.205193913995
 10
1816.694359889164
 20
1054.210584847395
 10
1816.708439183764
 20
1054.216046752196
 10
1816.722490847764
 20
1054.221579509196
 10
1816.736514558363
 20
1054.227182998996
 10
1816.750509992964
 20
1054.232857102596
 10
1816.764476828764
 20
1054.238601700795
 10
1816.778414737564
 20
1054.244416665596
 10
1816.792323370564
 20
1054.250301835396
 10
1816.806202373165
 20
1054.256257039395
 10
1816.820051391164
 20
1054.262282107396
 10
1816.833870070164
 20
1054.268376868595
 10
1816.847658055964
 20
1054.274541152596
 10
1816.861414994364
 20
1054.280774789195
 10
1816.875140530564
 20
1054.287077607595
 10
1816.888834310764
 20
1054.293449437396
 10
1816.902495980363
 20
1054.299890107996
 10
1816.916125185164
 20
1054.306399449196
 10
1816.929721570764
 20
1054.312977290396
 10
1816.943284782764
 20
1054.319623460796
 10
1816.956814466964
 20
1054.326337790396
 10
1816.970310268964
 20
1054.333120108395
 10
1816.983771834564
 20
1054.339970244396
 10
1816.997198809164
 20
1054.346888027995
 10
1817.010590838764
 20
1054.353873288396
 10
1817.023947568964
 20
1054.360925855595
 10
1817.037268645364
 20
1054.368045558596
 10
1817.050553713564
 20
1054.375232227396
 10
1817.063802419364
 20
1054.382485690996
 10
1817.077014408364
 20
1054.389805779396
 10
1817.090189326364
 20
1054.397192321796
 10
1817.103326818964
 20
1054.404645147795
 10
1817.116426531764
 20
1054.412164086996
 10
1817.129488117164
 20
1054.419748961796
 10
1817.142511252564
 20
1054.427399566596
 10
1817.155495622763
 20
1054.435115688795
 10
1817.168440911764
 20
1054.442897115796
 10
1817.181346803964
 20
1054.450743634796
 10
1817.194212983764
 20
1054.458655033595
 10
1817.207039135363
 20
1054.466631099195
 10
1817.219824943164
 20
1054.474671618995
 10
1817.232570091564
 20
1054.482776380595
 10
1817.245274264764
 20
1054.490945171195
 10
1817.257937147164
 20
1054.499177778196
 10
1817.270558422964
 20
1054.507473989195
 10
1817.283137776564
 20
1054.515833591396
 10
1817.295674892364
 20
1054.524256371996
 10
1817.308169454564
 20
1054.532742118795
 10
1817.320621147564
 20
1054.541290618796
 10
1817.333029655564
 20
1054.549901659596
 10
1817.345394662964
 20
1054.558575028396
 10
1817.357715853964
 20
1054.567310512796
 10
1817.369992913164
 20
1054.576107900196
 10
1817.382225524764
 20
1054.584966977595
 10
1817.394413372964
 20
1054.593887532796
 10
1817.406556142164
 20
1054.602869352995
 10
1817.418653516764
 20
1054.611912225596
 10
1817.430705180764
 20
1054.621015937995
 10
1817.442710818964
 20
1054.630180277595
 10
1817.454670119964
 20
1054.639405025195
 10
1817.466582790364
 20
1054.648689934596
 10
1817.478448541364
 20
1054.658034753795
 10
1817.490267084364
 20
1054.667439229995
 10
1817.502038130564
 20
1054.676903110995
 10
1817.513761390964
 20
1054.686426144195
 10
1817.525436576964
 20
1054.696008076996
 10
1817.537063399764
 20
1054.705648656996
 10
1817.548641570564
 20
1054.715347631796
 10
1817.560170800364
 20
1054.725104748996
 10
1817.571650800763
 20
1054.734919755796
 10
1817.583081282564
 20
1054.744792399995
 10
1817.594461957364
 20
1054.754722429195
 10
1817.605792536164
 20
1054.764709590796
 10
1817.617072730164
 20
1054.774753632196
 10
1817.628302250564
 20
1054.784854300996
 10
1817.639480808564
 20
1054.795011344796
 10
1817.650608115564
 20
1054.805224511196
 10
1817.661683882564
 20
1054.815493547596
 10
1817.672707820964
 20
1054.825818201595
 10
1817.683679641764
 20
1054.836198220596
 10
1817.694599056164
 20
1054.846633352195
 10
1817.705465775764
 20
1054.857123343795
 10
1817.716279511164
 20
1054.867667943195
 10
1817.727039974164
 20
1054.878266897795
 10
1817.737746875564
 20
1054.888919955196
 10
1817.748399932964
 20
1054.899626856595
 10
1817.758998887564
 20
1054.910387319596
 10
1817.769543486964
 20
1054.921201054996
 10
1817.780033478564
 20
1054.932067774596
 10
1817.790468610164
 20
1054.942987188995
 10
1817.800848629164
 20
1054.953959009796
 10
1817.811173283164
 20
1054.964982948196
 10
1817.821442319564
 20
1054.976058715196
 10
1817.831655485764
 20
1054.987186022195
 10
1817.841812529764
 20
1054.998364580196
 10
1817.851913198564
 20
1055.009594100595
 10
1817.861957239964
 20
1055.020874294595
 10
1817.871944401564
 20
1055.032204873395
 10
1817.881874430564
 20
1055.043585548195
 10
1817.891747074964
 20
1055.055016029996
 10
1817.901562081764
 20
1055.066496030395
 10
1817.911319198963
 20
1055.078025260196
 10
1817.921018173764
 20
1055.089603430996
 10
1817.930658753764
 20
1055.101230253795
 10
1817.940240686564
 20
1055.112905439796
 10
1817.949763719564
 20
1055.124628700396
 10
1817.959227600564
 20
1055.136399746396
 10
1817.968632076764
 20
1055.148218289395
 10
1817.977976895964
 20
1055.160084040596
 10
1817.987261805564
 20
1055.171996710996
 10
1817.996486552964
 20
1055.183956011796
 10
1818.005650892564
 20
1055.195961649995
 10
1818.014754604964
 20
1055.208013314196
 10
1818.023797477563
 20
1055.220110688596
 10
1818.032779297764
 20
1055.232253457796
 10
1818.041699852964
 20
1055.244441305996
 10
1818.050558930564
 20
1055.256673917596
 10
1818.059356317763
 20
1055.268950976795
 10
1818.068091802163
 20
1055.281272167995
 10
1818.076765170964
 20
1055.293637175396
 10
1818.085376211764
 20
1055.306045683396
 10
1818.093924711764
 20
1055.318497376195
 10
1818.102410458564
 20
1055.330991938396
 10
1818.110833239164
 20
1055.343529054195
 10
1818.119192841363
 20
1055.356108407796
 10
1818.127489052363
 20
1055.368729683595
 10
1818.135721659364
 20
1055.381392565995
 10
1818.143890449963
 20
1055.394096739196
 10
1818.143890449963
 20
1055.394096739196
 10
1818.151995211564
 20
1055.406841887596
 10
1818.160035731564
 20
1055.419627695395
 10
1818.168011796964
 20
1055.432453847195
 10
1818.175923195764
 20
1055.445320026996
 10
1818.183769714764
 20
1055.458225919196
 10
1818.191551141764
 20
1055.471171208195
 10
1818.199267263963
 20
1055.484155578396
 10
1818.206917868764
 20
1055.497178713795
 10
1818.214502743564
 20
1055.510240298996
 10
1818.222021682764
 20
1055.523340011996
 10
1818.229474508764
 20
1055.536477504396
 10
1818.236861051164
 20
1055.549652422396
 10
1818.244181139364
 20
1055.562864411596
 10
1818.251434603164
 20
1055.576113117396
 10
1818.258621271764
 20
1055.589398185595
 10
1818.265740974964
 20
1055.602719261996
 10
1818.272793541964
 20
1055.616075991996
 10
1818.279778802564
 20
1055.629468021595
 10
1818.286696586164
 20
1055.642894996395
 10
1818.293546722164
 20
1055.656356561996
 10
1818.300329040164
 20
1055.669852363996
 10
1818.307043369564
 20
1055.683382048195
 10
1818.313689540164
 20
1055.696945260195
 10
1818.320267381164
 20
1055.710541645796
 10
1818.326776722364
 20
1055.724170850595
 10
1818.333217393164
 20
1055.737832520196
 10
1818.339589222963
 20
1055.751526300196
 10
1818.345892041364
 20
1055.765251836596
 10
1818.352125677764
 20
1055.779008774996
 10
1818.358289961964
 20
1055.792796760796
 10
1818.364384723164
 20
1055.806615439796
 10
1818.370409790964
 20
1055.820464457796
 10
1818.376364995164
 20
1055.834343460396
 10
1818.382250164764
 20
1055.848252093396
 10
1818.388065129764
 20
1055.862190002196
 10
1818.393809727764
 20
1055.876156837996
 10
1818.399483831363
 20
1055.890152272396
 10
1818.405087321363
 20
1055.904175983195
 10
1818.410620078164
 20
1055.918227647195
 10
1818.416081982964
 20
1055.932306941796
 10
1818.421472916364
 20
1055.946413543995
 10
1818.426792759163
 20
1055.960547131395
 10
1818.432041392164
 20
1055.974707380996
 10
1818.437218696364
 20
1055.988893970196
 10
1818.442324552164
 20
1056.003106575996
 10
1818.447358840564
 20
1056.017344875796
 10
1818.452321442364
 20
1056.031608546796
 10
1818.457212238164
 20
1056.045897266196
 10
1818.462031108964
 20
1056.060210711196
 10
1818.466777935564
 20
1056.074548558996
 10
1818.471452598563
 20
1056.088910486995
 10
1818.476054978964
 20
1056.103296172396
 10
1818.480584957564
 20
1056.117705292396
 10
1818.485042414764
 20
1056.132137523996
 10
1818.489427231764
 20
1056.146592544795
 10
1818.493739289364
 20
1056.161070031795
 10
1818.497978467964
 20
1056.175569662396
 10
1818.502144648764
 20
1056.190091113596
 10
1818.506237712164
 20
1056.204634062796
 10
1818.510257539364
 20
1056.219198187395
 10
1818.514204010964
 20
1056.233783164196
 10
1818.518077012564
 20
1056.248388636996
 10
1818.521876449964
 20
1056.263014114396
 10
1818.525602233764
 20
1056.277659071195
 10
1818.529254274363
 20
1056.292322982595
 10
1818.532832482164
 20
1056.307005323196
 10
1818.536336768164
 20
1056.321705567995
 10
1818.539767042564
 20
1056.336423191996
 10
1818.543123216164
 20
1056.351157669995
 10
1818.546405199364
 20
1056.365908477196
 10
1818.549612902564
 20
1056.380675087996
 10
1818.552746236764
 20
1056.395456977796
 10
1818.555805112164
 20
1056.410253621196
 10
1818.558789439364
 20
1056.425064493396
 10
1818.561699128963
 20
1056.439889068996
 10
1818.564534091564
 20
1056.454726823196
 10
1818.567294237764
 20
1056.469577230796
 10
1818.569979478164
 20
1056.484439766595
 10
1818.572589722964
 20
1056.499313905596
 10
1818.575124883164
 20
1056.514199122596
 10
1818.577584868964
 20
1056.529094892796
 10
1818.579969591164
 20
1056.544000690996
 10
1818.582278960164
 20
1056.558915991996
 10
1818.584512886564
 20
1056.573840270796
 10
1818.586671280964
 20
1056.588773002396
 10
1818.588754053964
 20
1056.603713661396
 10
1818.590761115964
 20
1056.618661722996
 10
1818.592692397564
 20
1056.633616778796
 10
1818.594547908764
 20
1056.648578886996
 10
1818.596327678963
 20
1056.663548222795
 10
1818.598031738564
 20
1056.678524960996
 10
1818.599660116764
 20
1056.693509276795
 10
1818.601212843964
 20
1056.708501345196
 10
1818.602689949564
 20
1056.723501341196
 10
1818.604091463564
 20
1056.738509439995
 10
1818.605417415564
 20
1056.753525816195
 10
1818.606667835764
 20
1056.768550645196
 10
1818.607842753764
 20
1056.783584101996
 10
1818.608942199164
 20
1056.798626361596
 10
1818.609966202164
 20
1056.813677598796
 10
1818.610914792364
 20
1056.828737988996
 10
1818.611787999564
 20
1056.843807706796
 10
1818.612585853764
 20
1056.858886927596
 10
1818.613308384564
 20
1056.873975826396
 10
1818.613955621764
 20
1056.889074577996
 10
1818.614527595364
 20
1056.904183357596
 10
1818.615024335164
 20
1056.919302340196
 10
1818.615445870764
 20
1056.934431700796
 10
1818.615792232164
 20
1056.949571614395
 10
1818.616063449164
 20
1056.964722256195
 10
1818.616259551564
 20
1056.979883800996
 10
1818.616380569164
 20
1056.995056423795
 10
1818.616426531764
 20
1057.010240299996
 10
1818.616426531163
 20
1057.010240298596
 10
1818.616426526164
 20
1073.510240298596
 10
1818.616426526164
 20
1073.510240298596
 10
1821.616426526164
 20
1073.510240299396
 10
1821.616426526164
 20
1073.510240299396
 10
1821.616426531164
 20
1057.010240299395
 10
1821.616426531764
 20
1057.010240300796
 10
1821.616379963764
 20
1056.988438545595
 10
1821.616255551164
 20
1056.966646799996
 10
1821.616053275364
 20
1056.944864933596
 10
1821.615773116964
 20
1056.923092815596
 10
1821.615415057164
 20
1056.901330315795
 10
1821.614979076764
 20
1056.879577303195
 10
1821.614465156964
 20
1056.857833647395
 10
1821.613873278764
 20
1056.836099217796
 10
1821.613203422964
 20
1056.814373883796
 10
1821.612455570564
 20
1056.792657514996
 10
1821.611629702564
 20
1056.770949980596
 10
1821.610725799964
 20
1056.749251149996
 10
1821.609743843964
 20
1056.727560892795
 10
1821.608683815164
 20
1056.705879078396
 10
1821.607545694764
 20
1056.684205576196
 10
1821.606329463764
 20
1056.662540255595
 10
1821.605035103164
 20
1056.640882985995
 10
1821.603662593964
 20
1056.619233636796
 10
1821.602211916763
 20
1056.597592077396
 10
1821.600683053164
 20
1056.575958177396
 10
1821.599075983764
 20
1056.554331805996
 10
1821.597390689564
 20
1056.532712832796
 10
1821.595627151564
 20
1056.511101126996
 10
1821.593785350964
 20
1056.489496558396
 10
1821.591865268564
 20
1056.467898995995
 10
1821.589866885164
 20
1056.446308309595
 10
1821.587790182164
 20
1056.424724368196
 10
1821.585635140164
 20
1056.403147041595
 10
1821.583401740564
 20
1056.381576198996
 10
1821.581089963764
 20
1056.360011709996
 10
1821.578699791364
 20
1056.338453443995
 10
1821.576231216564
 20
1056.316901357196
 10
1821.573684284164
 20
1056.295355754595
 10
1821.571059050764
 20
1056.273817027796
 10
1821.568355573564
 20
1056.252285568596
 10
1821.565573909763
 20
1056.230761768595
 10
1821.562714116364
 20
1056.209246019596
 10
1821.559776250364
 20
1056.187738713396
 10
1821.556760368564
 20
1056.166240241596
 10
1821.553666528564
 20
1056.144750995996
 10
1821.550494786964
 20
1056.123271368396
 10
1821.547245200764
 20
1056.101801750596
 10
1821.543917827364
 20
1056.080342533996
 10
1821.540512723764
 20
1056.058894110796
 10
1821.537029946764
 20
1056.037456872396
 10
1821.533469553363
 20
1056.016031210596
 10
1821.529831600964
 20
1055.994617516995
 10
1821.526116146564
 20
1055.973216183596
 10
1821.522323246764
 20
1055.951827602196
 10
1821.518452959164
 20
1055.930452164195
 10
1821.514505340564
 20
1055.909090261396
 10
1821.510480447964
 20
1055.887742285796
 10
1821.506378338364
 20
1055.866408628796
 10
1821.502199068964
 20
1055.845089682395
 10
1821.497942696964
 20
1055.823785838196
 10
1821.493609278964
 20
1055.802497487795
 10
1821.489198872364
 20
1055.781225023395
 10
1821.484711533964
 20
1055.759968836196
 10
1821.480147321164
 20
1055.738729318196
 10
1821.475506290764
 20
1055.717506861196
 10
1821.470788499764
 20
1055.696301856595
 10
1821.465994005364
 20
1055.675114696596
 10
1821.461122867564
 20
1055.653945747995
 10
1821.456175159764
 20
1055.632795278995
 10
1821.451150958164
 20
1055.611663533795
 10
1821.446050338964
 20
1055.590550755796
 10
1821.440873378364
 20
1055.569457188595
 10
1821.435620152963
 20
1055.548383076196
 10
1821.430290738564
 20
1055.527328662395
 10
1821.424885211964
 20
1055.506294190595
 10
1821.419403649164
 20
1055.485279904595
 10
1821.413846126364
 20
1055.464286048196
 10
1821.408212719964
 20
1055.443312865196
 10
1821.402503506364
 20
1055.422360599195
 10
1821.396718561764
 20
1055.401429493795
 10
1821.390857962364
 20
1055.380519792996
 10
1821.384921784364
 20
1055.359631740396
 10
1821.378910104364
 20
1055.338765579596
 10
1821.372822998364
 20
1055.317921554595
 10
1821.366660542764
 20
1055.297099908796
 10
1821.360422813964
 20
1055.276300886196
 10
1821.354109887964
 20
1055.255524730396
 10
1821.347721841364
 20
1055.234771684996
 10
1821.341258750164
 20
1055.214041993796
 10
1821.334720690764
 20
1055.193335900596
 10
1821.328107739364
 20
1055.172653649195
 10
1821.321419972364
 20
1055.151995483195
 10
1821.314657466164
 20
1055.131361646195
 10
1821.307820296764
 20
1055.110752381995
 10
1821.300908540564
 20
1055.090167934396
 10
1821.293922273964
 20
1055.069608547196
 10
1821.286861572964
 20
1055.049074463796
 10
1821.279726514164
 20
1055.028565928396
 10
1821.272517179163
 20
1055.008083188796
 10
1821.265233672364
 20
1054.987626511596
 10
1821.257876102764
 20
1054.967196167596
 10
1821.250444580364
 20
1054.946792427996
 10
1821.242939214764
 20
1054.926415563596
 10
1821.235360115563
 20
1054.906065845196
 10
1821.227707392164
 20
1054.885743543996
 10
1821.219981154164
 20
1054.865448930796
 10
1821.212181511364
 20
1054.845182276396
 10
1821.204308573164
 20
1054.824943851995
 10
1821.196362449164
 20
1054.804733928196
 10
1821.188343249164
 20
1054.784552776395
 10
1821.180251082564
 20
1054.764400666996
 10
1821.172086058964
 20
1054.744277871396
 10
1821.163848288164
 20
1054.724184660395
 10
1821.155537879564
 20
1054.704121304796
 10
1821.147154942564
 20
1054.684088075596
 10
1821.138699587164
 20
1054.664085243796
 10
1821.130171922764
 20
1054.644113080196
 10
1821.121572058963
 20
1054.624171855796
 10
1821.112900105364
 20
1054.604261841796
 10
1821.104156171364
 20
1054.584383308596
 10
1821.095340366964
 20
1054.564536527596
 10
1821.086452801363
 20
1054.544721769596
 10
1821.077493584564
 20
1054.524939305396
 10
1821.068462825764
 20
1054.505189406196
 10
1821.059360634764
 20
1054.485472342595
 10
1821.050187120964
 20
1054.465788385796
 10
1821.040942394164
 20
1054.446137806595
 10
1821.031626563964
 20
1054.426520876196
 10
1821.022239739764
 20
1054.406937864995
 10
1821.012782036164
 20
1054.387389040395
 10
1821.003253585563
 20
1054.367874653396
 10
1820.993654525764
 20
1054.348394950596
 10
1820.983984993964
 20
1054.328950179196
 10
1820.974245128164
 20
1054.309540586196
 10
1820.964435065364
 20
1054.290166418396
 10
1820.954554943364
 20
1054.270827922996
 10
1820.944604899564
 20
1054.251525346796
 10
1820.934585071564
 20
1054.232258936796
 10
1820.924495596564
 20
1054.213028939996
 10
1820.914336612364
 20
1054.193835603395
 10
1820.904108256364
 20
1054.174679173796
 10
1820.893810666163
 20
1054.155559898396
 10
1820.883443979164
 20
1054.136478024195
 10
1820.873008332764
 20
1054.117433797996
 10
1820.862503864764
 20
1054.098427466795
 10
1820.851930712164
 20
1054.079459277396
 10
1820.841289012964
 20
1054.060529477196
 10
1820.830578904564
 20
1054.041638312796
 10
1820.819800524164
 20
1054.022786031396
 10
1820.808954009564
 20
1054.003972879795
 10
1820.798039498364
 20
1053.985199104996
 10
1820.787057127564
 20
1053.966464953996
 10
1820.776007035164
 20
1053.947770673996
 10
1820.764889358364
 20
1053.929116511595
 10
1820.753704234964
 20
1053.910502713796
 10
1820.742451801964
 20
1053.891929527996
 10
1820.731132197364
 20
1053.873397200596
 10
1820.719745558564
 20
1053.854905978996
 10
1820.708292022764
 20
1053.836456109796
 10
1820.696771727764
 20
1053.818047840396
 10
1820.685184815564
 20
1053.799681414995
 10
1820.673531446364
 20
1053.781357068996
 10
1820.661811784764
 20
1053.763075034995
 10
1820.650025995564
 20
1053.744835545395
 10
1820.638174243564
 20
1053.726638833396
 10
1820.626256693364
 20
1053.708485131195
 10
1820.614273509964
 20
1053.690374671796
 10
1820.602224857964
 20
1053.672307687995
 10
1820.590110901964
 20
1053.654284412196
 10
1820.577931806964
 20
1053.636305077396
 10
1820.565687737564
 20
1053.618369915995
 10
1820.553378858564
 20
1053.600479160795
 10
1820.541005334564
 20
1053.582633044595
 10
1820.528567330364
 20
1053.564831799995
 10
1820.516065010763
 20
1053.547075659795
 10
1820.503498540364
 20
1053.529364856595
 10
1820.490868084164
 20
1053.511699623196
 10
1820.478173806764
 20
1053.494080192195
 10
1820.465415872963
 20
1053.476506796195
 10
1820.452594447364
 20
1053.458979668196
 10
1820.439709694764
 20
1053.441499040596
 10
1820.426761779764
 20
1053.424065146196
 10
1820.413750867564
 20
1053.406678217996
 10
1820.400677122364
 20
1053.389338488196
 10
1820.387540709164
 20
1053.372046189795
 10
1820.374341792764
 20
1053.354801555196
 10
1820.361080537764
 20
1053.337604817596
 10
1820.347757108964
 20
1053.320456209395
 10
1820.334371671164
 20
1053.303355963196
 10
1820.320924388964
 20
1053.286304311796
 10
1820.307415427164
 20
1053.269301487996
 10
1820.293844954764
 20
1053.252347720995
 10
1820.280213157164
 20
1053.235443226396
 10
1820.266520224164
 20
1053.218588215995
 10
1820.252766345364
 20
1053.201782901996
 10
1820.238951710364
 20
1053.185027496596
 10
1820.225076508964
 20
1053.168322211996
 10
1820.211140930764
 20
1053.151667259796
 10
1820.197145165764
 20
1053.135062852396
 10
1820.183089403164
 20
1053.118509201996
 10
1820.168973832964
 20
1053.102006520395
 10
1820.154798644764
 20
1053.085555019595
 10
1820.140564028364
 20
1053.069154912195
 10
1820.126270173364
 20
1053.052806409795
 10
1820.126270173364
 20
1053.052806409795
 10
1820.111917269164
 20
1053.036509724395
 10
1820.097505505964
 20
1053.020265068596
 10
1820.083035073164
 20
1053.004072653996
 10
1820.068506160365
 20
1052.987932692996
 10
1820.053918957564
 20
1052.971845397395
 10
1820.039273654164
 20
1052.955810979395
 10
1820.024570439964
 20
1052.939829650996
 10
1820.009809504564
 20
1052.923901624396
 10
1819.994991037764
 20
1052.908027111596
 10
1819.980115229164
 20
1052.892206324795
 10
1819.965182268564
 20
1052.876439475996
 10
1819.950192345564
 20
1052.860726777196
 10
1819.935145649764
 20
1052.845068440595
 10
1819.920042370964
 20
1052.829464677996
 10
1819.904882698964
 20
1052.813915701796
 10
1819.889666823163
 20
1052.798421723996
 10
1819.874394933564
 20
1052.782982956796
 10
1819.859067219564
 20
1052.767599611796
 10
1819.843683874564
 20
1052.752271897795
 10
1819.828245107364
 20
1052.737000008196
 10
1819.812751129564
 20
1052.721784132396
 10
1819.797202153364
 20
1052.706624460395
 10
1819.781598390964
 20
1052.691521181596
 10
1819.765940054164
 20
1052.676474485796
 10
1819.750227355364
 20
1052.661484562796
 10
1819.734460506564
 20
1052.646551602196
 10
1819.718639719764
 20
1052.631675793596
 10
1819.702765206963
 20
1052.616857326796
 10
1819.686837180364
 20
1052.602096391396
 10
1819.670855852164
 20
1052.587393177196
 10
1819.654821434164
 20
1052.572747873796
 10
1819.638734138564
 20
1052.558160670795
 10
1819.622594177364
 20
1052.543631758195
 10
1819.606401762964
 20
1052.529161325395
 10
1819.590157106963
 20
1052.514749561995
 10
1819.573860421764
 20
1052.500396657995
 10
1819.557511919364
 20
1052.486102802996
 10
1819.541111811764
 20
1052.471868186396
 10
1819.524660311164
 20
1052.457692998196
 10
1819.508157629564
 20
1052.443577427996
 10
1819.491603978964
 20
1052.429521665596
 10
1819.474999571764
 20
1052.415525900396
 10
1819.458344619564
 20
1052.401590322196
 10
1819.441639334764
 20
1052.387715120996
 10
1819.424883929364
 20
1052.373900485996
 10
1819.408078615564
 20
1052.360146606996
 10
1819.391223605164
 20
1052.346453673996
 10
1819.374319110364
 20
1052.332821876396
 10
1819.357365343364
 20
1052.319251403996
 10
1819.340362519564
 20
1052.305742442196
 10
1819.323310868364
 20
1052.292295159996
 10
1819.306210622164
 20
1052.278909722196
 10
1819.289062013964
 20
1052.265586293396
 10
1819.271865276164
 20
1052.252325038395
 10
1819.254620641764
 20
1052.239126121996
 10
1819.237328343363
 20
1052.225989708795
 10
1819.219988613564
 20
1052.212915963595
 10
1819.202601685364
 20
1052.199905051396
 10
1819.185167790964
 20
1052.186957136396
 10
1819.167687163363
 20
1052.174072383795
 10
1819.150160035364
 20
1052.161250958196
 10
1819.132586639364
 20
1052.148493024396
 10
1819.114967208364
 20
1052.135798746996
 10
1819.097301974964
 20
1052.123168290596
 10
1819.079591171764
 20
1052.110601820396
 10
1819.061835031564
 20
1052.098099500796
 10
1819.044033786964
 20
1052.085661496596
 10
1819.026187670764
 20
1052.073287972596
 10
1819.008296915563
 20
1052.060979093596
 10
1818.990361754364
 20
1052.048735024195
 10
1818.972382419364
 20
1052.036555928996
 10
1818.954359143564
 20
1052.024441973196
 10
1818.936292159764
 20
1052.012393321196
 10
1818.918181700363
 20
1052.000410137596
 10
1818.900027998363
 20
1051.988492587596
 10
1818.881831286164
 20
1051.976640835596
 10
1818.863591796764
 20
1051.964855046396
 10
1818.845309762564
 20
1051.953135384795
 10
1818.826985416563
 20
1051.941482015395
 10
1818.808618991164
 20
1051.929895103195
 10
1818.790210721764
 20
1051.918374808196
 10
1818.771760852763
 20
1051.906921272595
 10
1818.753269630963
 20
1051.895534633595
 10
1818.734737303764
 20
1051.884215028995
 10
1818.716164117763
 20
1051.872962596196
 10
1818.697550320164
 20
1051.861777472596
 10
1818.678896157764
 20
1051.850659795795
 10
1818.660201877564
 20
1051.839609703395
 10
1818.641467726564
 20
1051.828627332795
 10
1818.622693951964
 20
1051.817712821395
 10
1818.603880800364
 20
1051.806866306796
 10
1818.585028518963
 20
1051.796087926395
 10
1818.566137354563
 20
1051.785377817995
 10
1818.547207554164
 20
1051.774736118796
 10
1818.528239364964
 20
1051.764162966396
 10
1818.509233033764
 20
1051.753658498196
 10
1818.490188807564
 20
1051.743222851796
 10
1818.471106933164
 20
1051.732856164796
 10
1818.451987657764
 20
1051.722558574596
 10
1818.432831228364
 20
1051.712330218596
 10
1818.413637891764
 20
1051.702171234396
 10
1818.394407894964
 20
1051.692081759396
 10
1818.375141484963
 20
1051.682061931396
 10
1818.355838908764
 20
1051.672111887596
 10
1818.336500413364
 20
1051.662231765595
 10
1818.317126245564
 20
1051.652421702796
 10
1818.297716652564
 20
1051.642681836796
 10
1818.278271881164
 20
1051.633012305196
 10
1818.258792178364
 20
1051.623413245395
 10
1818.239277791164
 20
1051.613884794796
 10
1818.219728966764
 20
1051.604427090995
 10
1818.200145955564
 20
1051.595040266996
 10
1818.180529024964
 20
1051.585724436596
 10
1818.160878445964
 20
1051.576479709796
 10
1818.141194489164
 20
1051.567306196195
 10
1818.121477425564
 20
1051.558204005196
 10
1818.101727526364
 20
1051.549173246395
 10
1818.081945062164
 20
1051.540214029396
 10
1818.062130304164
 20
1051.531326463795
 10
1818.042283523164
 20
1051.522510659395
 10
1818.022404989964
 20
1051.513766725596
 10
1818.002494975964
 20
1051.505094771796
 10
1817.982553751564
 20
1051.496494907996
 10
1817.962581587963
 20
1051.487967243596
 10
1817.942578756164
 20
1051.479511888196
 10
1817.922545526964
 20
1051.471128951396
 10
1817.902482171364
 20
1051.462818542596
 10
1817.882388960364
 20
1051.454580771796
 10
1817.862266164764
 20
1051.446415748195
 10
1817.842114055364
 20
1051.438323581596
 10
1817.821932903564
 20
1051.430304381596
 10
1817.801722979964
 20
1051.422358257596
 10
1817.781484555364
 20
1051.414485319395
 10
1817.761217901164
 20
1051.406685676596
 10
1817.740923287764
 20
1051.398959438595
 10
1817.720600986564
 20
1051.391306715196
 10
1817.700251268164
 20
1051.383727615795
 10
1817.679874403764
 20
1051.376222250196
 10
1817.659470664164
 20
1051.368790727996
 10
1817.639040320364
 20
1051.361433158396
 10
1817.618583643164
 20
1051.354149651396
 10
1817.598100903564
 20
1051.346940316596
 10
1817.577592367964
 20
1051.339805257596
 10
1817.557058284564
 20
1051.332744556795
 10
1817.536498897364
 20
1051.325758290195
 10
1817.515914449764
 20
1051.318846533995
 10
1817.495305185764
 20
1051.312009364596
 10
1817.474671348764
 20
1051.305246858196
 10
1817.454013182564
 20
1051.298559091196
 10
1817.433330931164
 20
1051.291946139995
 10
1817.412624837964
 20
1051.285408080596
 10
1817.391895146964
 20
1051.278944989396
 10
1817.371142101564
 20
1051.272556942596
 10
1817.350365945564
 20
1051.266244016596
 10
1817.329566922964
 20
1051.260006287796
 10
1817.308745277164
 20
1051.253843832196
 10
1817.287901252164
 20
1051.247756726196
 10
1817.267035091364
 20
1051.241745046196
 10
1817.246147038764
 20
1051.235808868196
 10
1817.225237337964
 20
1051.229948268796
 10
1817.204306232764
 20
1051.224163324195
 10
1817.183353966764
 20
1051.218454110596
 10
1817.162380783564
 20
1051.212820704196
 10
1817.141386927364
 20
1051.207263181396
 10
1817.120372641364
 20
1051.201781618596
 10
1817.099338169564
 20
1051.196376091996
 10
1817.078283755564
 20
1051.191046677595
 10
1817.057209643164
 20
1051.185793452196
 10
1817.036116076164
 20
1051.180616491595
 10
1817.015003298164
 20
1051.175515872396
 10
1816.993871552764
 20
1051.170491670595
 10
1816.972721083964
 20
1051.165543962795
 10
1816.951552135364
 20
1051.160672825196
 10
1816.930364975164
 20
1051.155878330796
 10
1816.909159970763
 20
1051.151160539796
 10
1816.887937513764
 20
1051.146519509395
 10
1816.866697995764
 20
1051.141955296396
 10
1816.845441808564
 20
1051.137467958196
 10
1816.824169343964
 20
1051.133057551596
 10
1816.802880993764
 20
1051.128724133596
 10
1816.781577149564
 20
1051.124467761396
 10
1816.760258203164
 20
1051.120288491996
 10
1816.738924546163
 20
1051.116186382596
 10
1816.717576570564
 20
1051.112161489996
 10
1816.696214667764
 20
1051.108213871196
 10
1816.674839229764
 20
1051.104343583596
 10
1816.653450648164
 20
1051.100550683995
 10
1816.632049314764
 20
1051.096835229396
 10
1816.610635621364
 20
1051.093197276996
 10
1816.589209959564
 20
1051.089636883595
 10
1816.567772721164
 20
1051.086154106595
 10
1816.546324297764
 20
1051.082749002996
 10
1816.524865081364
 20
1051.079421629596
 10
1816.503395463363
 20
1051.076172043395
 10
1816.481915835764
 20
1051.073000301795
 10
1816.460426590364
 20
1051.069906461795
 10
1816.438928118564
 20
1051.066890579996
 10
1816.417420812364
 20
1051.063952713995
 10
1816.395905063364
 20
1051.061092920596
 10
1816.395905063364
 20
1051.061092920596
 10
1816.374381263363
 20
1051.058311256596
 10
1816.352849804164
 20
1051.055607779596
 10
1816.331311077364
 20
1051.052982546196
 10
1816.309765474764
 20
1051.050435613595
 10
1816.288213387964
 20
1051.047967038996
 10
1816.266655121764
 20
1051.045576866396
 10
1816.245090632764
 20
1051.043265089795
 10
1816.223519790364
 20
1051.041031689996
 10
1816.201942463564
 20
1051.038876648195
 10
1816.180358522364
 20
1051.036799944996
 10
1816.158767835964
 20
1051.034801561795
 10
1816.137170273564
 20
1051.032881479395
 10
1816.115565704764
 20
1051.031039678596
 10
1816.093953999164
 20
1051.029276140596
 10
1816.072335025964
 20
1051.027590846595
 10
1816.050708654564
 20
1051.025983776996
 10
1816.029074754564
 20
1051.024454913396
 10
1816.007433195164
 20
1051.023004236396
 10
1815.985783845964
 20
1051.021631726996
 10
1815.964126576364
 20
1051.020337366395
 10
1815.942461255764
 20
1051.019121135396
 10
1815.920787753363
 20
1051.017983014996
 10
1815.899105938964
 20
1051.016922986196
 10
1815.877415681963
 20
1051.015941030196
 10
1815.855716851364
 20
1051.015037127596
 10
1815.834009316963
 20
1051.014211259596
 10
1815.812292948164
 20
1051.013463407195
 10
1815.790567614163
 20
1051.012793551395
 10
1815.768833184564
 20
1051.012201672995
 10
1815.747089528764
 20
1051.011687753196
 10
1815.725336516164
 20
1051.011251772996
 10
1815.703574016163
 20
1051.010893713196
 10
1815.681801898364
 20
1051.010613554796
 10
1815.660020031964
 20
1051.010411278796
 10
1815.638228286364
 20
1051.010286866396
 10
1815.616426531164
 20
1051.010240298396
 10
1815.616426531764
 20
1051.010240298396
 10
1792.179185086364
 20
1051.010240298396
 10
1792.179185086364
 20
1051.010240298396
 10
1792.173206473564
 20
1051.041350764196
 10
1792.167267022564
 20
1051.072529745995
 10
1792.161366733164
 20
1051.103777243596
 10
1792.155505605764
 20
1051.135093257196
 10
1792.149683639763
 20
1051.166477786796
 10
1792.143900835563
 20
1051.197930832195
 10
1792.138157193164
 20
1051.229452393796
 10
1792.132452712564
 20
1051.261042470995
 10
1792.126787393564
 20
1051.292701064395
 10
1792.121161236164
 20
1051.324428173595
 10
1792.115574240764
 20
1051.356223798796
 10
1792.110026406763
 20
1051.388087939995
 10
1792.104517734764
 20
1051.420020596996
 10
1792.099048224364
 20
1051.452021769996
 10
1792.093617875564
 20
1051.484091458996
 10
1792.088226688564
 20
1051.516229663796
 10
1792.082874663364
 20
1051.548436384596
 10
1792.077561799964
 20
1051.580711621396
 10
1792.072288098164
 20
1051.613055373996
 10
1792.067053557964
 20
1051.645467642795
 10
1792.061858179564
 20
1051.677948427195
 10
1792.056701962964
 20
1051.710497727796
 10
1792.051584907964
 20
1051.743115544196
 10
1792.046507014764
 20
1051.775801876596
 10
1792.041468283364
 20
1051.808556724996
 10
1792.036468713564
 20
1051.841380089196
 10
1792.031508305363
 20
1051.874271969396
 10
1792.026587059164
 20
1051.907232365396
 10
1792.021704974564
 20
1051.940261277596
 10
1792.016862051564
 20
1051.973358705596
 10
1792.012058290364
 20
1052.006524649396
 10
1792.007293690964
 20
1052.039759109395
 10
1792.002568253164
 20
1052.073062085196
 10
1791.997881977164
 20
1052.106433576796
 10
1791.993234862763
 20
1052.139873584596
 10
1791.988626910164
 20
1052.173382108195
 10
1791.984058119364
 20
1052.206959147795
 10
1791.979528490164
 20
1052.240604703196
 10
1791.975038022764
 20
1052.274318774596
 10
1791.970586716964
 20
1052.308101361996
 10
1791.966174572964
 20
1052.341952465396
 10
1791.961801590764
 20
1052.375872084596
 10
1791.957467770164
 20
1052.409860219796
 10
1791.953173111164
 20
1052.443916870996
 10
1791.948917614164
 20
1052.478042037995
 10
1791.944701278764
 20
1052.512235720995
 10
1791.940524104963
 20
1052.546497919996
 10
1791.936386092964
 20
1052.580828634795
 10
1791.932287242764
 20
1052.615227865596
 10
1791.928227554163
 20
1052.649695612395
 10
1791.924207027364
 20
1052.684231874996
 10
1791.920225662364
 20
1052.718836653595
 10
1791.916283458964
 20
1052.753509948195
 10
1791.912380417164
 20
1052.788251758796
 10
1791.908516537364
 20
1052.823062085196
 10
1791.904691818964
 20
1052.857940927595
 10
1791.900906262563
 20
1052.892888285795
 10
1791.897159867764
 20
1052.927904159996
 10
1791.893452634564
 20
1052.962988550196
 10
1791.889784563364
 20
1052.998141456396
 10
1791.886155653564
 20
1053.033362878395
 10
1791.882565905764
 20
1053.068652816396
 10
1791.879015319564
 20
1053.104011270396
 10
1791.875503894964
 20
1053.139438240196
 10
1791.872031632364
 20
1053.174933725996
 10
1791.868598531164
 20
1053.210497727796
 10
1791.865204591964
 20
1053.246130245396
 10
1791.861849814364
 20
1053.281831278996
 10
1791.858534198364
 20
1053.317600828596
 10
1791.855257744164
 20
1053.353438894196
 10
1791.852020451764
 20
1053.389345475596
 10
1791.848822320964
 20
1053.425320572995
 10
1791.845663351963
 20
1053.461364186195
 10
1791.842543544764
 20
1053.497476315396
 10
1791.839462899164
 20
1053.533656960595
 10
1791.836421415164
 20
1053.569906121795
 10
1791.833419093164
 20
1053.606223798795
 10
1791.830455932564
 20
1053.642609991796
 10
1791.827531933964
 20
1053.679064700795
 10
1791.824647096964
 20
1053.715587925595
 10
1791.821801421765
 20
1053.752179666396
 10
1791.818994908164
 20
1053.788839923195
 10
1791.816227556364
 20
1053.825568695796
 10
1791.813499366164
 20
1053.862365984395
 10
1791.810810337764
 20
1053.899231788995
 10
1791.808160471164
 20
1053.936166109596
 10
1791.805549766164
 20
1053.973168945996
 10
1791.802978222964
 20
1054.010240298396
 10
1791.802978222964
 20
1054.010240298396
 10
1815.616426531764
 20
1054.010240298396
 97
        0
 92
        1
 93
        4
 72
     1
 10
1818.616426522564
 20
1086.010240298596
 11
1821.616426522564
 21
1086.010240299396
 72
     1
 10
1821.616426522564
 20
1086.010240299396
 11
1821.616426524764
 21
1078.510240299396
 72
     1
 10
1821.616426524763
 20
1078.510240299396
 11
1818.616426524764
 21
1078.510240298595
 72
     1
 10
1818.616426524764
 20
1078.510240298595
 11
1818.616426522563
 21
1086.010240298596
 97
        0
 75
     0
 76
     0
 52
45.0
 41
1.485
 77
     0
 78
     1
 53
45.0
 43
1077.819385252164
 44
1002.823441630396
 45
-1.050053569999999
 46
1.050053569999999
 79
     0
 98
        1
 10
1077.819385252164
 20
1002.823441630396
  0
HATCH
  5
825B
330
254
100
AcDbEntity
  8
0
  6
Continuous
 62
     2
100
AcDbHatch
 10
0.0
 20
0.0
 30
0.0
210
0.0
220
0.0
230
1.0
  2
DEFAULT__116
 70
     0
 71
     0
 91
        1
 92
        2
 72
     0
 73
     1
 93
      127
 10
1844.453283318764
 20
1048.510240298395
 10
1792.815060609564
 20
1048.510240298395
 10
1792.815060609564
 20
1048.510240298395
 10
1792.803321612564
 20
1048.546838875195
 10
1792.791647635163
 20
1048.583476843395
 10
1792.780038677364
 20
1048.620154202396
 10
1792.768494738963
 20
1048.656870952796
 10
1792.757015820164
 20
1048.693627094196
 10
1792.745601920964
 20
1048.730422626596
 10
1792.734253041364
 20
1048.767257550196
 10
1792.722969181363
 20
1048.804131864796
 10
1792.711750340764
 20
1048.841045570596
 10
1792.700596519964
 20
1048.877998667596
 10
1792.689507718564
 20
1048.914991155596
 10
1792.678483936764
 20
1048.952023034595
 10
1792.667525174364
 20
1048.989094304796
 10
1792.656631431764
 20
1049.026204966196
 10
1792.645802708564
 20
1049.063355018596
 10
1792.635039005164
 20
1049.100544462196
 10
1792.624340321164
 20
1049.137773296796
 10
1792.613706656564
 20
1049.175041522595
 10
1792.603138011764
 20
1049.212349139396
 10
1792.592634386364
 20
1049.249696147396
 10
1792.582195780764
 20
1049.287082546396
 10
1792.571822194564
 20
1049.324508336596
 10
1792.561513627764
 20
1049.361973517796
 10
1792.551270080764
 20
1049.399478090196
 10
1792.541091553364
 20
1049.437022053596
 10
1792.530978045364
 20
1049.474605408195
 10
1792.520929556964
 20
1049.512228153996
 10
1792.510946088164
 20
1049.549890290796
 10
1792.501027638964
 20
1049.587591818595
 10
1792.491174209163
 20
1049.625332737595
 10
1792.481385799164
 20
1049.663113047796
 10
1792.471662408564
 20
1049.700932748996
 10
1792.462004037564
 20
1049.738791841395
 10
1792.452410685964
 20
1049.776690324796
 10
1792.442882354164
 20
1049.814628199196
 10
1792.433419041964
 20
1049.852605464995
 10
1792.424020749164
 20
1049.890622121596
 10
1792.414687475964
 20
1049.928678169596
 10
1792.405419222364
 20
1049.966773608395
 10
1792.396215988164
 20
1050.004908438596
 10
1792.387077773764
 20
1050.043082659795
 10
1792.378004578764
 20
1050.081296271995
 10
1792.368996403364
 20
1050.119549275396
 10
1792.360053247564
 20
1050.157841669796
 10
1792.351175111363
 20
1050.196173455395
 10
1792.342361994564
 20
1050.234544632195
 10
1792.333613897564
 20
1050.272955199996
 10
1792.324930819964
 20
1050.311405158796
 10
1792.316312761964
 20
1050.349894508796
 10
1792.307759723564
 20
1050.388423249996
 10
1792.299271704564
 20
1050.426991382196
 10
1792.290848705363
 20
1050.465598905596
 10
1792.282490725564
 20
1050.504245819996
 10
1792.274197765364
 20
1050.542932125595
 10
1792.265969824763
 20
1050.581657822196
 10
1792.257806903563
 20
1050.620422909996
 10
1792.249709002164
 20
1050.659227388796
 10
1792.241676120164
 20
1050.698071258795
 10
1792.233708257764
 20
1050.736954519796
 10
1792.225805414964
 20
1050.775877171996
 10
1792.217967591764
 20
1050.814839215395
 10
1792.210194787963
 20
1050.853840649796
 10
1792.202487003964
 20
1050.892881475196
 10
1792.194844239364
 20
1050.931961691796
 10
1792.187266494364
 20
1050.971081299596
 10
1792.179753768963
 20
1051.010240298396
 10
1792.179753768963
 20
1051.010240298396
 10
1845.874992983164
 20
1051.010240298396
 10
1845.874992983164
 20
1051.010240298396
 10
1845.850272825164
 20
1050.963602001996
 10
1845.825528393964
 20
1050.917036267196
 10
1845.800759689364
 20
1050.870543093796
 10
1845.775966711564
 20
1050.824122481796
 10
1845.751149460364
 20
1050.777774431195
 10
1845.726307935964
 20
1050.731498941996
 10
1845.701442138364
 20
1050.685296014395
 10
1845.676552067564
 20
1050.639165647996
 10
1845.651637723564
 20
1050.593107842995
 10
1845.626699106164
 20
1050.547122599596
 10
1845.601736215564
 20
1050.501209917595
 10
1845.576749051564
 20
1050.455369796996
 10
1845.551737614565
 20
1050.409602237796
 10
1845.526701904164
 20
1050.363907239995
 10
1845.501641920564
 20
1050.318284803596
 10
1845.476557663564
 20
1050.272734928795
 10
1845.451449133564
 20
1050.227257615196
 10
1845.426316330164
 20
1050.181852863195
 10
1845.401159253364
 20
1050.136520672396
 10
1845.375977903563
 20
1050.091261043195
 10
1845.350772280364
 20
1050.046073975396
 10
1845.325542383963
 20
1050.000959468996
 10
1845.300288214163
 20
1049.955917523995
 10
1845.275009771364
 20
1049.910948140396
 10
1845.249707055164
 20
1049.866051318396
 10
1845.224380065764
 20
1049.821227057596
 10
1845.199028802964
 20
1049.776475358395
 10
1845.173653266964
 20
1049.731796220595
 10
1845.148253457763
 20
1049.687189643996
 10
1845.122829375364
 20
1049.642655628995
 10
1845.097381019564
 20
1049.598194175596
 10
1845.071908390764
 20
1049.553805283396
 10
1845.046411488364
 20
1049.509488952596
 10
1845.020890312964
 20
1049.465245183196
 10
1844.995344864164
 20
1049.421073975396
 10
1844.969775142163
 20
1049.376975328995
 10
1844.944181146964
 20
1049.332949243795
 10
1844.918562878364
 20
1049.288995720196
 10
1844.892920336764
 20
1049.245114757996
 10
1844.867253521764
 20
1049.201306357196
 10
1844.841562433364
 20
1049.157570517996
 10
1844.815847071964
 20
1049.113907239995
 10
1844.790107437164
 20
1049.070316523396
 10
1844.764343528964
 20
1049.026798368395
 10
1844.738555347764
 20
1048.983352774796
 10
1844.712742893164
 20
1048.939979742395
 10
1844.686906165364
 20
1048.896679271596
 10
1844.661045164363
 20
1048.853451362195
 10
1844.635159889963
 20
1048.810296014395
 10
1844.609250342564
 20
1048.767213227796
 10
1844.583316521563
 20
1048.724203002596
 10
1844.557358427563
 20
1048.681265338996
 10
1844.531376060164
 20
1048.638400236596
 10
1844.505369419564
 20
1048.595607695796
 10
1844.479338505763
 20
1048.552887716395
 97
        0
 75
     0
 76
     0
 52
45.0
 41
0.7425
 77
     0
 78
     1
 53
45.0
 43
1077.819385252164
 44
1002.823441630396
 45
-0.5250267850000001
 46
0.5250267850000001
 79
     0
 98
        1
 10
1077.819385252164
 20
1002.823441630396
  0
LINE
  5
8266
330
254
100
AcDbEntity
  8
0
  6
Continuous
 62
     7
100
AcDbLine
 10
1813.466754877964
 20
1030.706346223595
 30
0.0
 11
1823.102205807564
 21
1031.409288629196
 31
0.0
  0
LINE
  5
8267
330
254
100
AcDbEntity
  8
0
  6
Continuous
 62
     7
100
AcDbLine
 10
1804.550774086164
 20
1034.099838303595
 30
0.0
 11
1813.466754877964
 21
1030.706346223595
 31
0.0
  0
LINE
  5
8268
330
254
100
AcDbEntity
  8
0
  6
Continuous
 62
     7
100
AcDbLine
 10
1797.189362375964
 20
1040.595484463195
 30
0.0
 11
1804.550774086164
 21
1034.099838303595
 31
0.0
  0
LINE
  5
8269
330
254
100
AcDbEntity
  8
0
  6
Continuous
 62
     7
100
AcDbLine
 10
1809.397193234964
 20
1133.302137116795
 30
0.0
 11
1801.868576376564
 21
1127.234207138396
 31
0.0
  0
LINE
  5
826A
330
254
100
AcDbEntity
  8
0
  6
Continuous
 62
     7
100
AcDbLine
 10
1801.868576376564
 20
1127.234207138396
 30
0.0
 11
1796.731751504164
 21
1118.242638127995
 31
0.0
  0
LINE
  5
826B
330
254
100
AcDbEntity
  8
0
  6
Continuous
 62
     7
100
AcDbLine
 10
1792.690571753363
 20
1048.912279889396
 30
0.0
 11
1797.189362375964
 21
1040.595484463195
 31
0.0
  0
LINE
  5
826C
330
254
100
AcDbEntity
  8
0
  6
Continuous
 62
     7
100
AcDbLine
 10
1800.878267352164
 20
1046.810228091396
 30
0.0
 11
1808.578279559164
 21
1046.810228091396
 31
0.0
  0
LINE
  5
826D
330
254
100
AcDbEntity
  8
0
  6
Continuous
 62
     7
100
AcDbLine
 10
1796.731751504164
 20
1118.242638127995
 30
0.0
 11
1793.975696482764
 21
1108.028017439596
 31
0.0
  0
LINE
  5
826E
330
254
100
AcDbEntity
  8
0
  6
Continuous
 62
     7
100
AcDbLine
 10
1843.989332090564
 20
1048.510240298395
 30
0.0
 11
1792.908046375564
 21
1048.510240298395
 31
0.0
  0
LINE
  5
826F
330
254
100
AcDbEntity
  8
0
  6
Continuous
 62
     7
100
AcDbLine
 10
1792.128929803164
 20
1054.010240298396
 30
0.0
 11
1792.690571753363
 21
1048.912279889396
 31
0.0
  0
LINE
  5
8270
330
254
100
AcDbEntity
  8
0
  6
Continuous
 62
     7
100
AcDbLine
 10
1793.407453060964
 20
1096.701652940596
 30
0.0
 11
1794.019921465764
 21
1085.668798754196
 31
0.0
  0
LINE
  5
8271
330
254
100
AcDbEntity
  8
0
  6
Continuous
 62
     7
100
AcDbLine
 10
1794.019921465764
 20
1085.668798754196
 30
0.0
 11
1793.975696482764
 21
1074.614774476396
 31
0.0
  0
LINE
  5
8272
330
254
100
AcDbEntity
  8
0
  6
Continuous
 62
     7
100
AcDbLine
 10
1793.975696482764
 20
1108.028017439596
 30
0.0
 11
1793.407453060964
 21
1096.701652940596
 31
0.0
  0
LINE
  5
8273
330
254
100
AcDbEntity
  8
0
  6
Continuous
 62
     7
100
AcDbLine
 10
1792.760563707164
 20
1065.949614434195
 30
0.0
 11
1792.191884968364
 21
1061.010240298395
 31
0.0
  0
LINE
  5
8274
330
254
100
AcDbEntity
  8
0
  6
Continuous
 62
     7
100
AcDbLine
 10
1793.975696482764
 20
1074.614774476396
 30
0.0
 11
1792.760563707164
 21
1065.949614434195
 31
0.0
  0
LINE
  5
8275
330
254
100
AcDbEntity
  8
0
  6
Continuous
 62
     7
100
AcDbLine
 10
1845.663616029163
 20
1051.010240298396
 30
0.0
 11
1792.459439598364
 21
1051.010240298396
 31
0.0
  0
LINE
  5
8276
330
254
100
AcDbEntity
  8
0
  6
Continuous
 62
     7
100
AcDbLine
 10
1792.128929803164
 20
1054.010240298396
 30
0.0
 11
1815.616426531764
 21
1054.010240298396
 31
0.0
  0
LINE
  5
8277
330
254
100
AcDbEntity
  8
0
  6
Continuous
 62
     7
100
AcDbLine
 10
1799.978242937964
 20
1047.710252505395
 30
0.0
 11
1799.978242937964
 21
1048.510240298395
 31
0.0
  0
LINE
  5
8278
330
254
100
AcDbEntity
  8
0
  6
Continuous
 62
     7
100
AcDbLine
 10
1802.328279559164
 20
1054.010240298396
 30
0.0
 11
1802.328279559164
 21
1060.510240298396
 31
0.0
  0
LINE
  5
8279
330
254
100
AcDbEntity
  8
0
  6
Continuous
 62
     7
100
AcDbLine
 10
1802.328279559164
 20
1060.510240298396
 30
0.0
 11
1807.128267352164
 21
1060.510240298396
 31
0.0
  0
LINE
  5
827A
330
254
100
AcDbEntity
  8
0
  6
Continuous
 62
     7
100
AcDbLine
 10
1792.191884968364
 20
1061.010240298395
 30
0.0
 11
1818.616426531764
 21
1061.010240298395
 31
0.0
  0
LINE
  5
827B
330
254
100
AcDbEntity
  8
0
  6
Continuous
 62
     7
100
AcDbLine
 10
1821.616426531764
 20
1061.010240298395
 30
0.0
 11
1823.116426531764
 21
1061.010240298395
 31
0.0
  0
LINE
  5
827C
330
254
100
AcDbEntity
  8
0
  6
Continuous
 62
     7
100
AcDbLine
 10
1805.935091082564
 20
1072.860215884196
 30
0.0
 11
1804.116426531764
 21
1076.010240298395
 31
0.0
  0
LINE
  5
827D
330
254
100
AcDbEntity
  8
0
  6
Continuous
 62
     7
100
AcDbLine
 10
1805.935091082564
 20
1072.860215884196
 30
0.0
 11
1805.935091082564
 21
1079.160264712396
 31
0.0
  0
LINE
  5
827E
330
254
100
AcDbEntity
  8
0
  6
Continuous
 62
     7
100
AcDbLine
 10
1807.128267352164
 20
1054.010240298396
 30
0.0
 11
1807.128267352164
 21
1060.510240298396
 31
0.0
  0
LINE
  5
827F
330
254
100
AcDbEntity
  8
0
  6
Continuous
 62
     7
100
AcDbLine
 10
1823.116426531764
 20
1066.010240298395
 30
0.0
 11
1821.616426531764
 21
1066.010240298395
 31
0.0
  0
LWPOLYLINE
  5
8280
330
254
100
AcDbEntity
  8
0
  6
Continuous
 62
     7
100
AcDbPolyline
 90
       17
 70
     0
 43
0.0
 10
1811.816438738764
 20
1072.527513247596
 10
1811.828279559164
 20
1072.347947817796
 10
1811.846712176364
 20
1072.168199282796
 10
1811.871736590364
 20
1071.988145571796
 10
1811.903291766164
 20
1071.807542544396
 10
1811.941438738764
 20
1071.626268130395
 10
1811.986116473164
 20
1071.444200259196
 10
1812.037447039564
 20
1071.261094790596
 10
1812.095369402964
 20
1071.076707583595
 10
1812.160005633364
 20
1070.890672427195
 10
1812.231477801364
 20
1070.702684145995
 10
1812.309907977164
 20
1070.512437563996
 10
1812.395601336564
 20
1070.319505434996
 10
1812.488679949764
 20
1070.123338442796
 10
1812.589571062964
 20
1069.923448306196
 10
1812.698640887364
 20
1069.719346743596
 10
1812.816438738764
 20
1069.510240298396
  0
LWPOLYLINE
  5
8281
330
254
100
AcDbEntity
  8
0
  6
Continuous
 62
     7
100
AcDbPolyline
 90
       17
 70
     0
 43
0.0
 10
1811.816438738764
 20
1079.027513247596
 10
1811.828279559164
 20
1078.847947817796
 10
1811.846712176364
 20
1078.668199282796
 10
1811.871736590364
 20
1078.488145571796
 10
1811.903291766164
 20
1078.307542544395
 10
1811.941438738764
 20
1078.126268130395
 10
1811.986116473164
 20
1077.944200259196
 10
1812.037447039564
 20
1077.761094790596
 10
1812.095369402964
 20
1077.576707583595
 10
1812.160005633364
 20
1077.390672427195
 10
1812.231477801364
 20
1077.202684145995
 10
1812.309907977164
 20
1077.012437563996
 10
1812.395601336564
 20
1076.819505434996
 10
1812.488679949764
 20
1076.623338442796
 10
1812.589571062964
 20
1076.423448306196
 10
1812.698640887364
 20
1076.219346743596
 10
1812.816438738764
 20
1076.010240298395
  0
LINE
  5
8282
330
254
100
AcDbEntity
  8
0
  6
Continuous
 62
     7
100
AcDbLine
 10
1808.616426531764
 20
1090.010240298395
 30
0.0
 11
1808.616426531764
 21
1108.010240298396
 31
0.0
  0
LINE
  5
8283
330
254
100
AcDbEntity
  8
0
  6
Continuous
 62
     7
100
AcDbLine
 10
1809.478242937964
 20
1047.710252505395
 30
0.0
 11
1809.478242937964
 21
1048.510240298395
 31
0.0
  0
LINE
  5
8284
330
254
100
AcDbEntity
  8
0
  6
Continuous
 62
     7
100
AcDbLine
 10
1831.688211670564
 20
1131.748703946396
 30
0.0
 11
1821.875032488764
 21
1111.883958559995
 31
0.0
  0
LINE
  5
8285
330
254
100
AcDbEntity
  8
0
  6
Continuous
 62
     7
100
AcDbLine
 10
1833.023533281764
 20
1131.065050792196
 30
0.0
 11
1823.219881121564
 21
1111.219590884196
 31
0.0
  0
LINE
  5
8286
330
254
100
AcDbEntity
  8
0
  6
Continuous
 62
     7
100
AcDbLine
 10
1805.935091082564
 20
1079.160264712396
 30
0.0
 11
1804.116426531764
 21
1076.010240298395
 31
0.0
  0
LINE
  5
8287
330
254
100
AcDbEntity
  8
0
  6
Continuous
 62
     7
100
AcDbLine
 10
1818.616426531764
 20
1068.010240298395
 30
0.0
 11
1817.116426531764
 21
1068.010240298395
 31
0.0
  0
LINE
  5
8288
330
254
100
AcDbEntity
  8
0
  6
Continuous
 62
     7
100
AcDbLine
 10
1821.616426531764
 20
1068.510240298396
 30
0.0
 11
1822.416414324764
 21
1068.510240298396
 31
0.0
  0
LINE
  5
8289
330
254
100
AcDbEntity
  8
0
  6
Continuous
 62
     7
100
AcDbLine
 10
1823.916414324764
 20
1069.105760317796
 30
0.0
 11
1823.116426531764
 21
1069.105760317796
 31
0.0
  0
LINE
  5
828A
330
254
100
AcDbEntity
  8
0
  6
Continuous
 62
     7
100
AcDbLine
 10
1817.116426531764
 20
1069.510240298396
 30
0.0
 11
1811.816438738764
 21
1069.510240298396
 31
0.0
  0
LINE
  5
828B
330
254
100
AcDbEntity
  8
0
  6
Continuous
 62
     7
100
AcDbLine
 10
1822.910860125564
 20
1069.510240298396
 30
0.0
 11
1828.421968523964
 21
1069.510240298396
 31
0.0
  0
LINE
  5
828C
330
254
100
AcDbEntity
  8
0
  6
Continuous
 62
     7
100
AcDbLine
 10
1828.916414324764
 20
1071.010240298396
 30
0.0
 11
1829.116426531764
 21
1071.010240298396
 31
0.0
  0
LWPOLYLINE
  5
828D
330
254
100
AcDbEntity
  8
0
  6
Continuous
 62
     7
100
AcDbPolyline
 90
        8
 70
     0
 43
0.0
 10
1809.670198504564
 20
1090.010240298395
 10
1809.674898211564
 20
1089.975450259196
 10
1809.731355730964
 20
1089.868516665596
 10
1809.840425555164
 20
1089.763597231996
 10
1810.000398699764
 20
1089.661912661596
 10
1810.209383074764
 20
1089.564988833595
 10
1810.464448992764
 20
1089.474107485796
 10
1810.762056414564
 20
1089.390428286596
  0
LINE
  5
828E
330
254
100
AcDbEntity
  8
0
  6
Continuous
 62
     7
100
AcDbLine
 10
1811.816438738764
 20
1069.510240298396
 30
0.0
 11
1811.816438738764
 21
1082.510240298395
 31
0.0
  0
LWPOLYLINE
  5
828F
330
254
100
AcDbEntity
  8
0
  6
Continuous
 62
     7
100
AcDbPolyline
 90
        3
 70
     0
 43
0.0
 10
1811.846651141164
 20
1073.351854067796
 10
1811.828279559164
 20
1073.172288638196
 10
1811.816438738764
 20
1072.992967349195
  0
LWPOLYLINE
  5
8290
330
254
100
AcDbEntity
  8
0
  6
Continuous
 62
     7
100
AcDbPolyline
 90
       17
 70
     0
 43
0.0
 10
1812.816438738764
 20
1082.510240298395
 10
1812.698457781763
 20
1082.300767641996
 10
1812.589265887364
 20
1082.096360903796
 10
1812.488252703764
 20
1081.896287661595
 10
1812.395113055164
 20
1081.699937563995
 10
1812.309419695964
 20
1081.506883364795
 10
1812.230989520164
 20
1081.316575747596
 10
1812.159517352164
 20
1081.128587466396
 10
1812.094942156764
 20
1080.942613345196
 10
1812.037080828764
 20
1080.758226138196
 10
1811.985872332564
 20
1080.575181704595
 10
1811.941255633363
 20
1080.393235903795
 10
1811.903169695964
 20
1080.212144595195
 10
1811.871614520164
 20
1080.031785708595
 10
1811.846651141164
 20
1079.851854067796
 10
1811.828279559164
 20
1079.672288638196
 10
1811.816438738764
 20
1079.492967349195
  0
LINE
  5
8291
330
254
100
AcDbEntity
  8
0
  6
Continuous
 62
     7
100
AcDbLine
 10
1818.616426531764
 20
1072.010240298395
 30
0.0
 11
1821.616426531764
 21
1072.010240298395
 31
0.0
  0
LINE
  5
8292
330
254
100
AcDbEntity
  8
0
  6
Continuous
 62
     7
100
AcDbLine
 10
1828.916414324764
 20
1072.010240298395
 30
0.0
 11
1841.616426531764
 21
1072.010240298395
 31
0.0
  0
LINE
  5
8293
330
254
100
AcDbEntity
  8
0
  6
Continuous
 62
     7
100
AcDbLine
 10
1811.816438738764
 20
1072.860215884196
 30
0.0
 11
1805.935091082564
 21
1072.860215884196
 31
0.0
  0
LINE
  5
8294
330
254
100
AcDbEntity
  8
0
  6
Continuous
 62
     7
100
AcDbLine
 10
1822.910860125564
 20
1069.510240298396
 30
0.0
 11
1822.416414324764
 21
1070.004686099196
 31
0.0
  0
LWPOLYLINE
  5
8295
330
254
100
AcDbEntity
  8
0
  6
Continuous
 62
     7
100
AcDbPolyline
 90
       10
 70
     0
 43
0.0
 10
1817.548128191964
 20
1108.010240298396
 10
1817.536226336564
 20
1108.919664126395
 10
1817.509553973164
 20
1110.487230044395
 10
1817.477327410764
 20
1111.990342837396
 10
1817.438325945964
 20
1113.461839419396
 10
1817.390657488764
 20
1114.928636294395
 10
1817.332979266164
 20
1116.383287173396
 10
1817.264619891164
 20
1117.805955630395
 10
1817.185030047364
 20
1119.179185610795
 10
1817.093904559164
 20
1120.490648013196
  0
LINE
  5
8296
330
254
100
AcDbEntity
  8
0
  6
Continuous
 62
     7
100
AcDbLine
 10
1817.116426531764
 20
1068.010240298395
 30
0.0
 11
1817.116426531764
 21
1090.010240298395
 31
0.0
  0
LINE
  5
8297
330
254
100
AcDbEntity
  8
0
  6
Continuous
 62
     7
100
AcDbLine
 10
1817.187166277964
 20
1090.010240298395
 30
0.0
 11
1817.187166277964
 21
1108.010240298396
 31
0.0
  0
LINE
  5
8298
330
254
100
AcDbEntity
  8
0
  6
Continuous
 62
     7
100
AcDbLine
 10
1818.616426531764
 20
1057.010240298396
 30
0.0
 11
1818.616426531764
 21
1108.010240298396
 31
0.0
  0
LWPOLYLINE
  5
8299
330
254
100
AcDbEntity
  8
0
  6
Continuous
 62
     7
100
AcDbPolyline
 90
       15
 70
     0
 43
0.0
 10
1812.816438738764
 20
1076.010240298395
 10
1812.698457781763
 20
1075.800767641996
 10
1812.589265887364
 20
1075.596360903796
 10
1812.488252703764
 20
1075.396287661595
 10
1812.395113055164
 20
1075.199937563996
 10
1812.309419695964
 20
1075.006883364795
 10
1812.230989520164
 20
1074.816575747596
 10
1812.159517352164
 20
1074.628587466396
 10
1812.094942156764
 20
1074.442613345196
 10
1812.037080828764
 20
1074.258226138196
 10
1811.985872332564
 20
1074.075181704595
 10
1811.941255633363
 20
1073.893235903796
 10
1811.903169695964
 20
1073.712144595195
 10
1811.871614520164
 20
1073.531785708595
 10
1811.846651141164
 20
1073.351854067796
  0
LINE
  5
829A
330
254
100
AcDbEntity
  8
0
  6
Continuous
 62
     7
100
AcDbLine
 10
1817.116426531764
 20
1076.010240298395
 30
0.0
 11
1812.816438738764
 21
1076.010240298395
 31
0.0
  0
LINE
  5
829B
330
254
100
AcDbEntity
  8
0
  6
Continuous
 62
     7
100
AcDbLine
 10
1823.916414324764
 20
1076.010240298395
 30
0.0
 11
1827.416414324764
 21
1076.010240298395
 31
0.0
  0
LINE
  5
829C
330
254
100
AcDbEntity
  8
0
  6
Continuous
 62
     7
100
AcDbLine
 10
1811.816438738764
 20
1079.160264712396
 30
0.0
 11
1805.935091082564
 21
1079.160264712396
 31
0.0
  0
LWPOLYLINE
  5
829D
330
254
100
AcDbEntity
  8
0
  6
Continuous
 62
     7
100
AcDbPolyline
 90
       36
 70
     0
 43
0.0
 10
1823.916414324764
 20
1069.510240298396
 10
1823.798128191963
 20
1069.720262270995
 10
1823.688875262364
 20
1069.924852114795
 10
1823.588045184164
 20
1070.124620181196
 10
1823.495210711564
 20
1070.320237856996
 10
1823.410005633364
 20
1070.512254458595
 10
1823.332063738764
 20
1070.701158266995
 10
1823.261201922364
 20
1070.887376528796
 10
1823.197115008364
 20
1071.071397524996
 10
1823.139680926364
 20
1071.253465395995
 10
1823.088838641164
 20
1071.433946352996
 10
1823.044466082564
 20
1071.613084536595
 10
1823.006502215364
 20
1071.791185122596
 10
1822.974886004564
 20
1071.968431216396
 10
1822.949556414565
 20
1072.145066958595
 10
1822.930635516164
 20
1072.321153384196
 10
1822.918001238764
 20
1072.496934634196
 10
1822.911653582564
 20
1072.672532778796
 10
1822.911653582564
 20
1072.848008852996
 10
1822.918001238764
 20
1073.023606997596
 10
1822.930635516164
 20
1073.199388247596
 10
1822.949556414565
 20
1073.375474673396
 10
1822.974886004564
 20
1073.552110415596
 10
1823.006502215364
 20
1073.729356509196
 10
1823.044466082564
 20
1073.907457095195
 10
1823.088838641164
 20
1074.086595278796
 10
1823.139741961564
 20
1074.267076235795
 10
1823.197115008364
 20
1074.449144106996
 10
1823.261201922364
 20
1074.633104067796
 10
1823.332063738764
 20
1074.819322329595
 10
1823.410005633364
 20
1075.008226138196
 10
1823.495210711564
 20
1075.200242739795
 10
1823.588045184164
 20
1075.395860415596
 10
1823.688875262364
 20
1075.595628481996
 10
1823.798128191963
 20
1075.800218325595
 10
1823.916414324764
 20
1076.010240298395
  0
LWPOLYLINE
  5
829E
330
254
100
AcDbEntity
  8
0
  6
Continuous
 62
     7
100
AcDbPolyline
 90
       16
 70
     0
 43
0.0
 10
1817.093904559164
 20
1120.490648013196
 10
1816.990205828764
 20
1121.743455630396
 10
1816.872346941964
 20
1122.944322329596
 10
1816.738618914564
 20
1124.098802309996
 10
1816.587068621564
 20
1125.210801821796
 10
1816.415865008363
 20
1126.282212954595
 10
1816.223115984964
 20
1127.315294009196
 10
1816.006807391164
 20
1128.312608462396
 10
1815.764986102163
 20
1129.276719790596
 10
1815.495882098163
 20
1130.210557681196
 10
1815.198091570963
 20
1131.116807681196
 10
1814.870821062964
 20
1131.997850161596
 10
1814.514009539564
 20
1132.856187563995
 10
1814.128206316963
 20
1133.695115786596
 10
1813.714204852163
 20
1134.519151431196
 10
1813.709884264363
 20
1134.527135021996
  0
LINE
  5
829F
330
254
100
AcDbEntity
  8
0
  6
Continuous
 62
     7
100
AcDbLine
 10
1821.616426531764
 20
1057.010240298396
 30
0.0
 11
1821.616426531764
 21
1110.776719790596
 31
0.0
  0
LINE
  5
82A0
330
254
100
AcDbEntity
  8
0
  6
Continuous
 62
     7
100
AcDbLine
 10
1822.416414324764
 20
1068.510240298396
 30
0.0
 11
1822.416414324764
 21
1083.510240298396
 31
0.0
  0
LINE
  5
82A1
330
254
100
AcDbEntity
  8
0
  6
Continuous
 62
     7
100
AcDbLine
 10
1823.116426531764
 20
1110.776719790596
 30
0.0
 11
1823.116426531764
 21
1082.510240298395
 31
0.0
  0
LINE
  5
82A2
330
254
100
AcDbEntity
  8
0
  6
Continuous
 62
     7
100
AcDbLine
 10
1823.116426531764
 20
1069.510240298396
 30
0.0
 11
1823.116426531764
 21
1061.010240298395
 31
0.0
  0
LINE
  5
82A3
330
254
100
AcDbEntity
  8
0
  6
Continuous
 62
     7
100
AcDbLine
 10
1822.910860125564
 20
1082.510240298395
 30
0.0
 11
1822.416414324764
 21
1082.015794497596
 31
0.0
  0
LINE
  5
82A4
330
254
100
AcDbEntity
  8
0
  6
Continuous
 62
     7
100
AcDbLine
 10
1818.616426531764
 20
1080.010240298395
 30
0.0
 11
1821.616426531764
 21
1080.010240298395
 31
0.0
  0
LINE
  5
82A5
330
254
100
AcDbEntity
  8
0
  6
Continuous
 62
     7
100
AcDbLine
 10
1828.916414324764
 20
1080.010240298395
 30
0.0
 11
1841.616426531764
 21
1080.010240298395
 31
0.0
  0
LINE
  5
82A6
330
254
100
AcDbEntity
  8
0
  6
Continuous
 62
     7
100
AcDbLine
 10
1828.916414324764
 20
1081.010240298396
 30
0.0
 11
1829.116426531764
 21
1081.010240298396
 31
0.0
  0
LINE
  5
82A7
330
254
100
AcDbEntity
  8
0
  6
Continuous
 62
     7
100
AcDbLine
 10
1811.816438738764
 20
1082.510240298395
 30
0.0
 11
1817.116426531764
 21
1082.510240298395
 31
0.0
  0
LINE
  5
82A8
330
254
100
AcDbEntity
  8
0
  6
Continuous
 62
     7
100
AcDbLine
 10
1822.910860125564
 20
1082.510240298395
 30
0.0
 11
1828.421968523964
 21
1082.510240298395
 31
0.0
  0
LINE
  5
82A9
330
254
100
AcDbEntity
  8
0
  6
Continuous
 62
     7
100
AcDbLine
 10
1823.916414324764
 20
1082.914720278796
 30
0.0
 11
1823.116426531764
 21
1082.914720278796
 31
0.0
  0
LWPOLYLINE
  5
82AA
330
254
100
AcDbEntity
  8
0
  6
Continuous
 62
     7
100
AcDbPolyline
 90
       36
 70
     0
 43
0.0
 10
1823.916414324764
 20
1076.010240298395
 10
1823.798128191963
 20
1076.220262270995
 10
1823.688875262364
 20
1076.424852114795
 10
1823.588045184164
 20
1076.624620181196
 10
1823.495210711564
 20
1076.820237856995
 10
1823.410005633364
 20
1077.012254458596
 10
1823.332063738764
 20
1077.201158266996
 10
1823.261201922364
 20
1077.387376528796
 10
1823.197115008364
 20
1077.571397524996
 10
1823.139680926364
 20
1077.753465395995
 10
1823.088838641164
 20
1077.933946352996
 10
1823.044466082564
 20
1078.113084536595
 10
1823.006502215364
 20
1078.291185122596
 10
1822.974886004564
 20
1078.468431216396
 10
1822.949556414565
 20
1078.645066958595
 10
1822.930635516164
 20
1078.821153384196
 10
1822.918001238764
 20
1078.996934634196
 10
1822.911653582564
 20
1079.172532778795
 10
1822.911653582564
 20
1079.348008852996
 10
1822.918001238764
 20
1079.523606997596
 10
1822.930635516164
 20
1079.699388247596
 10
1822.949556414565
 20
1079.875474673396
 10
1822.974886004564
 20
1080.052110415596
 10
1823.006502215364
 20
1080.229356509196
 10
1823.044466082564
 20
1080.407457095196
 10
1823.088838641164
 20
1080.586595278796
 10
1823.139741961564
 20
1080.767076235795
 10
1823.197115008364
 20
1080.949144106996
 10
1823.261201922364
 20
1081.133104067796
 10
1823.332063738764
 20
1081.319322329596
 10
1823.410005633364
 20
1081.508226138196
 10
1823.495210711564
 20
1081.700242739795
 10
1823.588045184164
 20
1081.895860415596
 10
1823.688875262364
 20
1082.095628481996
 10
1823.798128191963
 20
1082.300218325596
 10
1823.916414324764
 20
1082.510240298395
  0
LINE
  5
82AB
330
254
100
AcDbEntity
  8
0
  6
Continuous
 62
     7
100
AcDbLine
 10
1823.916414324764
 20
1069.105760317796
 30
0.0
 11
1823.916414324764
 21
1069.510240298396
 31
0.0
  0
LINE
  5
82AC
330
254
100
AcDbEntity
  8
0
  6
Continuous
 62
     7
100
AcDbLine
 10
1823.916414324764
 20
1082.510240298395
 30
0.0
 11
1823.916414324764
 21
1082.914720278796
 31
0.0
  0
LINE
  5
82AD
330
254
100
AcDbEntity
  8
0
  6
Continuous
 62
     7
100
AcDbLine
 10
1823.987947527964
 20
1069.510240298396
 30
0.0
 11
1823.916414324764
 21
1069.105760317796
 31
0.0
  0
LINE
  5
82AE
330
254
100
AcDbEntity
  8
0
  6
Continuous
 62
     7
100
AcDbLine
 10
1821.616426531764
 20
1083.510240298396
 30
0.0
 11
1822.416414324764
 21
1083.510240298396
 31
0.0
  0
LINE
  5
82AF
330
254
100
AcDbEntity
  8
0
  6
Continuous
 62
     7
100
AcDbLine
 10
1818.616426531764
 20
1085.010240298395
 30
0.0
 11
1817.116426531764
 21
1085.010240298395
 31
0.0
  0
LINE
  5
82B0
330
254
100
AcDbEntity
  8
0
  6
Continuous
 62
     7
100
AcDbLine
 10
1818.616426531764
 20
1086.010240298395
 30
0.0
 11
1823.116426531764
 21
1086.010240298395
 31
0.0
  0
LWPOLYLINE
  5
82B1
330
254
100
AcDbEntity
  8
0
  6
Continuous
 62
     7
100
AcDbPolyline
 90
       18
 70
     0
 43
0.0
 10
1810.762056414564
 20
1089.390428286596
 10
1811.098360125564
 20
1089.315171938995
 10
1811.468660418563
 20
1089.249315005395
 10
1811.868013445964
 20
1089.193711977996
 10
1812.291048113764
 20
1089.149217349195
 10
1812.731966082564
 20
1089.116258364795
 10
1813.184846941964
 20
1089.095506411596
 10
1813.643587176364
 20
1089.087022524996
 10
1814.101961199764
 20
1089.091050845196
 10
1814.553743426364
 20
1089.107591372596
 10
1814.992830340364
 20
1089.136277895995
 10
1815.413362566964
 20
1089.176744204595
 10
1815.809541766164
 20
1089.228563052195
 10
1816.176118914565
 20
1089.290879946796
 10
1816.508028094364
 20
1089.362962466396
 10
1816.800813738764
 20
1089.443773013196
 10
1817.050630633363
 20
1089.532273989795
 10
1817.116426531764
 20
1089.563035708595
  0
LINE
  5
82B2
330
254
100
AcDbEntity
  8
0
  6
Continuous
 62
     7
100
AcDbLine
 10
1828.916414324764
 20
1082.015794497596
 30
0.0
 11
1828.421968523964
 21
1082.510240298395
 31
0.0
  0
LWPOLYLINE
  5
82B3
330
254
100
AcDbEntity
  8
0
  6
Continuous
 62
     7
100
AcDbPolyline
 90
       14
 70
     0
 43
0.0
 10
1828.358003680164
 20
1080.052110415596
 10
1828.326387469364
 20
1080.229356509196
 10
1828.288362566963
 20
1080.407457095196
 10
1828.243990008363
 20
1080.586595278796
 10
1828.193147723164
 20
1080.767076235795
 10
1828.135713641164
 20
1080.949144106996
 10
1828.071687762365
 20
1081.133104067796
 10
1828.000764910764
 20
1081.319322329596
 10
1827.922823016164
 20
1081.508226138196
 10
1827.837617937964
 20
1081.700242739795
 10
1827.744783465364
 20
1081.895860415596
 10
1827.643953387364
 20
1082.095628481996
 10
1827.534700457564
 20
1082.300218325596
 10
1827.416414324764
 20
1082.510240298395
  0
LINE
  5
82B4
330
254
100
AcDbEntity
  8
0
  6
Continuous
 62
     7
100
AcDbLine
 10
1823.987947527964
 20
1082.510240298395
 30
0.0
 11
1823.916414324764
 21
1082.914720278796
 31
0.0
  0
LINE
  5
82B5
330
254
100
AcDbEntity
  8
0
  6
Continuous
 62
     7
100
AcDbLine
 10
1828.916414324764
 20
1070.004686099196
 30
0.0
 11
1828.916414324764
 21
1082.015794497596
 31
0.0
  0
LINE
  5
82B6
330
254
100
AcDbEntity
  8
0
  6
Continuous
 62
     7
100
AcDbLine
 10
1829.116426531764
 20
1081.010240298396
 30
0.0
 11
1829.116426531764
 21
1080.010240298395
 31
0.0
  0
LINE
  5
82B7
330
254
100
AcDbEntity
  8
0
  6
Continuous
 62
     7
100
AcDbLine
 10
1829.116426531764
 20
1072.010240298395
 30
0.0
 11
1829.116426531764
 21
1071.010240298396
 31
0.0
  0
LWPOLYLINE
  5
82B8
330
254
100
AcDbEntity
  8
0
  6
Continuous
 62
     7
100
AcDbPolyline
 90
       10
 70
     0
 43
0.0
 10
1828.358003680164
 20
1078.468431216396
 10
1828.383272234964
 20
1078.645066958595
 10
1828.402254168564
 20
1078.821153384196
 10
1828.414888445963
 20
1078.996934634196
 10
1828.421175066964
 20
1079.172532778795
 10
1828.421175066964
 20
1079.348008852996
 10
1828.414888445963
 20
1079.523606997596
 10
1828.402254168564
 20
1079.699388247596
 10
1828.383272234964
 20
1079.875474673396
 10
1828.358003680164
 20
1080.052110415596
  0
LWPOLYLINE
  5
82B9
330
254
100
AcDbEntity
  8
0
  6
Continuous
 62
     7
100
AcDbPolyline
 90
       14
 70
     0
 43
0.0
 10
1827.416414324764
 20
1076.010240298395
 10
1827.534700457564
 20
1076.220262270995
 10
1827.643953387364
 20
1076.424852114795
 10
1827.744783465364
 20
1076.624620181196
 10
1827.837617937964
 20
1076.820237856995
 10
1827.922823016164
 20
1077.012254458596
 10
1828.000764910764
 20
1077.201158266996
 10
1828.071687762365
 20
1077.387376528796
 10
1828.135713641164
 20
1077.571397524996
 10
1828.193147723164
 20
1077.753465395995
 10
1828.243990008363
 20
1077.933946352996
 10
1828.288362566963
 20
1078.113084536595
 10
1828.326387469364
 20
1078.291185122596
 10
1828.358003680164
 20
1078.468431216396
  0
LINE
  5
82BA
330
254
100
AcDbEntity
  8
0
  6
Continuous
 62
     7
100
AcDbLine
 10
1818.616426531764
 20
1090.010240298395
 30
0.0
 11
1808.616426531764
 21
1090.010240298395
 31
0.0
  0
LWPOLYLINE
  5
82BB
330
254
100
AcDbEntity
  8
0
  6
Continuous
 62
     7
100
AcDbPolyline
 90
       25
 70
     0
 43
0.0
 10
1806.722324030364
 20
1131.146240576796
 10
1806.899446551364
 20
1130.807908755395
 10
1807.186983172364
 20
1130.213792544396
 10
1807.445467059164
 20
1129.627916079596
 10
1807.680391375564
 20
1129.036302309996
 10
1807.896150652964
 20
1128.425645571796
 10
1808.095796648964
 20
1127.783921938996
 10
1808.281404559164
 20
1127.100511294396
 10
1808.454011980964
 20
1126.366929751395
 10
1808.613740984964
 20
1125.577989321796
 10
1808.760774676364
 20
1124.729417544396
 10
1808.895479266164
 20
1123.816819888196
 10
1809.018037859964
 20
1122.836656313995
 10
1809.128816668563
 20
1121.786851626396
 10
1809.227754656764
 20
1120.670152407795
 10
1809.314912859964
 20
1119.492784243596
 10
1809.390779559164
 20
1118.263231020995
 10
1809.455720965364
 20
1116.994737368596
 10
1809.510469500564
 20
1115.702256899996
 10
1809.556306902964
 20
1114.387864809996
 10
1809.594881121564
 20
1113.038133364796
 10
1809.627107684164
 20
1111.640306216396
 10
1809.653780047364
 20
1110.185594302195
 10
1809.675264422364
 20
1108.663926821796
 10
1809.682100359964
 20
1108.010240298396
  0
LWPOLYLINE
  5
82BC
330
254
100
AcDbEntity
  8
0
  6
Continuous
 62
     7
100
AcDbPolyline
 90
       36
 70
     0
 43
0.0
 10
1827.416414324764
 20
1069.510240298396
 10
1827.534700457564
 20
1069.720262270995
 10
1827.643953387364
 20
1069.924852114795
 10
1827.744783465364
 20
1070.124620181196
 10
1827.837617937964
 20
1070.320237856996
 10
1827.922823016164
 20
1070.512254458595
 10
1828.000764910764
 20
1070.701158266995
 10
1828.071687762365
 20
1070.887376528796
 10
1828.135713641164
 20
1071.071397524996
 10
1828.193147723164
 20
1071.253465395995
 10
1828.243990008363
 20
1071.433946352996
 10
1828.288362566963
 20
1071.613084536595
 10
1828.326387469364
 20
1071.791185122596
 10
1828.358003680164
 20
1071.968431216396
 10
1828.383272234964
 20
1072.145066958595
 10
1828.402254168564
 20
1072.321153384196
 10
1828.414888445963
 20
1072.496934634196
 10
1828.421175066964
 20
1072.672532778796
 10
1828.421175066964
 20
1072.848008852996
 10
1828.414888445963
 20
1073.023606997596
 10
1828.402254168564
 20
1073.199388247596
 10
1828.383272234964
 20
1073.375474673396
 10
1828.358003680164
 20
1073.552110415596
 10
1828.326387469364
 20
1073.729356509196
 10
1828.288362566963
 20
1073.907457095195
 10
1828.243990008363
 20
1074.086595278796
 10
1828.193147723164
 20
1074.267076235795
 10
1828.135713641164
 20
1074.449144106996
 10
1828.071687762365
 20
1074.633104067796
 10
1828.000764910764
 20
1074.819322329595
 10
1827.922823016164
 20
1075.008226138196
 10
1827.837617937964
 20
1075.200242739795
 10
1827.744783465364
 20
1075.395860415596
 10
1827.643953387364
 20
1075.595628481996
 10
1827.534700457564
 20
1075.800218325595
 10
1827.416414324764
 20
1076.010240298395
  0
LINE
  5
82BD
330
254
100
AcDbEntity
  8
0
  6
Continuous
 62
     7
100
AcDbLine
 10
1841.616426531764
 20
1080.010240298395
 30
0.0
 11
1842.116426531764
 21
1079.510240298396
 31
0.0
  0
LINE
  5
82BE
330
254
100
AcDbEntity
  8
0
  6
Continuous
 62
     7
100
AcDbLine
 10
1828.916414324764
 20
1070.004686099196
 30
0.0
 11
1828.421968523964
 21
1069.510240298396
 31
0.0
  0
LINE
  5
82BF
330
254
100
AcDbEntity
  8
0
  6
Continuous
 62
     7
100
AcDbLine
 10
1841.616426531764
 20
1072.010240298395
 30
0.0
 11
1841.616426531764
 21
1080.010240298395
 31
0.0
  0
LINE
  5
82C0
330
254
100
AcDbEntity
  8
0
  6
Continuous
 62
     7
100
AcDbLine
 10
1842.116426531764
 20
1072.510240298395
 30
0.0
 11
1842.116426531764
 21
1079.510240298396
 31
0.0
  0
LINE
  5
82C1
330
254
100
AcDbEntity
  8
0
  6
Continuous
 62
     7
100
AcDbLine
 10
1841.616426531764
 20
1072.010240298395
 30
0.0
 11
1842.116426531764
 21
1072.510240298395
 31
0.0
  0
LINE
  5
82C2
330
254
100
AcDbEntity
  8
0
  6
Continuous
 62
     7
100
AcDbLine
 10
1808.616426531764
 20
1108.010240298396
 30
0.0
 11
1818.616426531764
 21
1108.010240298396
 31
0.0
  0
LINE
  5
82C3
330
254
100
AcDbEntity
  8
0
  6
Continuous
 62
     7
100
AcDbLine
 10
1839.811811829564
 20
1042.272468787796
 30
0.0
 11
1845.663616029163
 21
1051.010240298396
 31
0.0
  0
LINE
  5
82C4
330
254
100
AcDbEntity
  8
0
  6
Continuous
 62
     7
100
AcDbLine
 10
1832.164189826963
 20
1035.665296337995
 30
0.0
 11
1839.811811829564
 21
1042.272468787796
 31
0.0
  0
LINE
  5
82C5
330
254
100
AcDbEntity
  8
0
  6
Continuous
 62
     7
100
AcDbLine
 10
1823.102205807564
 20
1031.409288629196
 30
0.0
 11
1832.164189826963
 21
1035.665296337995
 31
0.0
  0
LINE
  5
82C6
330
254
100
AcDbEntity
  8
0
  6
Continuous
 62
     7
100
AcDbLine
 10
1833.023533281764
 20
1131.065050792196
 30
0.0
 11
1827.817314355764
 21
1133.730512026596
 31
0.0
  0
LINE
  5
82C7
330
254
100
AcDbEntity
  8
0
  6
Continuous
 62
     7
100
AcDbLine
 10
1815.217740026163
 20
1134.955433765596
 30
0.0
 11
1809.397193234964
 21
1133.302137116795
 31
0.0
  0
LINE
  5
82C8
330
254
100
AcDbEntity
  8
0
  6
Continuous
 62
     7
100
AcDbLine
 10
1821.510542869964
 20
1135.028142904396
 30
0.0
 11
1815.217740026163
 21
1134.955433765596
 31
0.0
  0
LINE
  5
82C9
330
254
100
AcDbEntity
  8
0
  6
Continuous
 62
     7
100
AcDbLine
 10
1827.817314355764
 20
1133.730512026596
 30
0.0
 11
1821.510542869964
 21
1135.028142904396
 31
0.0
  0
ARC
  5
82CA
330
254
100
AcDbEntity
  8
0
  6
Continuous
 62
     7
100
AcDbCircle
 10
1815.616426531764
 20
1057.010240298396
 30
0.0
 40
6.0
100
AcDbArc
 50
269.9999999940073
 51
0.0
  0
ARC
  5
82CB
330
254
100
AcDbEntity
  8
0
  6
Continuous
 62
     7
100
AcDbCircle
 10
1815.616426531764
 20
1057.010240298396
 30
0.0
 40
3.0
100
AcDbArc
 50
269.9999999879886
 51
0.0
  0
ARC
  5
82CC
330
254
100
AcDbEntity
  8
0
  6
Continuous
 62
     7
100
AcDbCircle
 10
1824.116426531764
 20
1110.776710707595
 30
0.0
 40
2.5
100
AcDbArc
 50
153.7106280725051
 51
180.0
  0
ARC
  5
82CD
330
254
100
AcDbEntity
  8
0
  6
Continuous
 62
     7
100
AcDbCircle
 10
1824.116426531764
 20
1110.776710707595
 30
0.0
 40
1.0
100
AcDbArc
 50
153.7106280725051
 51
180.0
  0
ARC
  5
82CE
330
254
100
AcDbEntity
  8
0
  6
Continuous
 62
     7
100
AcDbCircle
 10
1800.878258352164
 20
1047.710240298396
 30
0.0
 40
0.9
100
AcDbArc
 50
180.0
 51
270.0
  0
ARC
  5
82CF
330
254
100
AcDbEntity
  8
0
  6
Continuous
 62
     7
100
AcDbCircle
 10
1808.578258352164
 20
1047.710240298396
 30
0.0
 40
0.9
100
AcDbArc
 50
270.0
 51
0.0
  0
CIRCLE
  5
82D5
330
254
100
AcDbEntity
  8
0
100
AcDbCircle
 10
1730.187777790493
 20
973.1400120729658
 30
0.0
 40
4.0
  0
LINE
  5
82D6
330
254
100
AcDbEntity
  8
02__ASM_ALL_AXES
  6
CENTER
 62
     2
100
AcDbLine
 10
1730.187777790493
 20
963.4226804267383
 30
0.0
 11
1730.187777790493
 21
983.1801709288811
 31
0.0
  0
LINE
  5
82D7
330
254
100
AcDbEntity
  8
02__ASM_ALL_AXES
  6
CENTER
 62
     2
100
AcDbLine
 10
1716.806648731184
 20
973.1400120729658
 30
0.0
 11
1743.265165486446
 21
973.3014256778096
 31
0.0
  0
ARC
  5
82D9
330
254
100
AcDbEntity
  8
0
100
AcDbCircle
 10
1813.467043453332
 20
1082.426582885853
 30
0.0
 40
66.52218456914166
100
AcDbArc
 50
293.7350459621381
 51
171.6482298418375
  0
LINE
  5
82E0
330
254
100
AcDbEntity
  8
0
100
AcDbLine
 10
1730.187777790493
 20
973.1400120729658
 30
0.0
 11
1747.650329930782
 21
1092.088945999582
 31
0.0
  0
LINE
  5
82E1
330
254
100
AcDbEntity
  8
0
100
AcDbLine
 10
1730.187777790493
 20
973.1400120729658
 30
0.0
 11
1840.242740445553
 21
1021.53107327774
 31
0.0
  0
VIEWPORT
  5
8339
330
255
100
AcDbEntity
 67
     1
  8
0
100
AcDbViewport
 10
297.0
 20
210.0
 30
0.0
 40
712.8
 41
504.0
 68
     1
 69
     1
 12
297.0
 22
210.0
 13
0.0
 23
0.0
 14
0.5
 24
0.5
 15
0.0
 25
0.0
 16
0.0
 26
0.0
 36
1.0
 17
0.0
 27
0.0
 37
0.0
 42
50.0
 43
0.0
 44
0.0
 45
504.0
 50
0.0
 51
0.0
 72
   100
 90
   557152
  1

281
     0
 71
     1
 74
     0
110
0.0
120
0.0
130
0.0
111
1.0
121
0.0
131
0.0
112
0.0
122
1.0
132
0.0
 79
     0
146
0.0
  0
VIEWPORT
  5
833A
330
255
100
AcDbEntity
 67
     1
  8
0
100
AcDbViewport
 10
297.0
 20
210.0
 30
0.0
 40
475.2
 41
336.0
 68
     2
 69
     2
 12
1286.457029915097
 22
1642.165112108335
 13
0.0
 23
0.0
 14
0.5
 24
0.5
 15
0.0
 25
0.0
 16
0.0
 26
0.0
 36
1.0
 17
0.0
 27
0.0
 37
0.0
 42
50.0
 43
0.0
 44
0.0
 45
5057.011417847717
 50
0.0
 51
0.0
 72
   100
 90
   557152
  1

281
     0
 71
     1
 74
     0
110
0.0
120
0.0
130
0.0
111
1.0
121
0.0
131
0.0
112
0.0
122
1.0
132
0.0
 79
     0
146
0.0
  0
ENDSEC
  0
SECTION
  2
OBJECTS
  0
DICTIONARY
  5
C
330
0
100
AcDbDictionary
281
     1
  3
ACAD_ASSOCNETWORK
350
33DB
  3
ACAD_CIP_PREVIOUS_PRODUCT_INFO
350
3246
  3
ACAD_DETAILVIEWSTYLE
350
3243
  3
ACAD_GROUP
350
D
  3
ACAD_IMAGE_VARS
350
3203
  3
ACAD_LAYOUT
350
1A
  3
ACAD_MATERIAL
350
8367
  3
ACAD_MLINESTYLE
350
17
  3
ACAD_PLOTSETTINGS
350
19
  3
ACAD_PLOTSTYLENAME
350
E
  3
ACAD_SCALELIST
350
31C0
  3
ACAD_SECTIONVIEWSTYLE
350
3241
  3
AcDbVariableDictionary
350
3319
  3
AcDsDecomposeData
350
82F7
  3
APPDATA
350
3201
  3
DWGPROPS
350
8366
  0
DICTIONARY
  5
336B
330
2
100
AcDbDictionary
280
     1
281
     1
  3
ACAD_LAYERSTATES
360
336C
  0
DICTIONARY
  5
3269
330
10
100
AcDbDictionary
280
     1
281
     1
  3
ADSK_XREC_LAYER_RECONCILED
360
326A
  0
DICTIONARY
  5
327D
330
203
100
AcDbDictionary
280
     1
281
     1
  3
ADSK_XREC_LAYER_RECONCILED
360
327E
  0
DICTIONARY
  5
32B5
330
21F
100
AcDbDictionary
280
     1
281
     1
  3
ADSK_XREC_LAYER_RECONCILED
360
32B6
  0
DICTIONARY
  5
3382
330
254
100
AcDbDictionary
280
     1
281
     1
  3
ACAD_ASSOCNETWORK
360
33D9
  3
ACAD_SORTENTS
360
3383
  0
DICTIONARY
  5
6A3E
330
69BE
100
AcDbDictionary
280
     1
281
     1
  3
AcDbBlockTableRecordData
360
8336
  0
DICTIONARY
  5
33DB
102
{ACAD_REACTORS
330
C
102
}
330
C
100
AcDbDictionary
281
     1
  3
ACAD_ASSOCNETWORK
350
33DC
  0
XRECORD
  5
3246
102
{ACAD_REACTORS
330
C
102
}
330
C
100
AcDbXrecord
280
     1
300
ACD
300
2015
300
ACD_F_S
  0
DICTIONARY
  5
3243
102
{ACAD_REACTORS
330
C
102
}
330
C
100
AcDbDictionary
281
     1
  3
Metric50
350
3244
  0
DICTIONARY
  5
D
102
{ACAD_REACTORS
330
C
102
}
330
C
100
AcDbDictionary
281
     1
  0
RASTERVARIABLES
  5
3203
102
{ACAD_REACTORS
330
C
102
}
330
C
100
AcDbRasterVariables
 90
        0
 70
     1
 71
     1
 72
     1
  0
DICTIONARY
  5
1A
102
{ACAD_REACTORS
330
C
102
}
330
C
100
AcDbDictionary
281
     1
  3
Layout1
350
31BE
  3
Model
350
31BD
  0
DICTIONARY
  5
8367
102
{ACAD_REACTORS
330
C
102
}
330
C
100
AcDbDictionary
281
     1
  3
ByBlock
350
8369
  3
ByLayer
350
8368
  3
Global
350
836A
  0
DICTIONARY
  5
17
102
{ACAD_REACTORS
330
C
102
}
330
C
100
AcDbDictionary
281
     1
  3
Standard
350
18
  0
DICTIONARY
  5
19
102
{ACAD_REACTORS
330
C
102
}
330
C
100
AcDbDictionary
281
     1
  0
ACDBDICTIONARYWDFLT
  5
E
102
{ACAD_REACTORS
330
C
102
}
330
C
100
AcDbDictionary
281
     1
  3
Normal
350
F
100
AcDbDictionaryWithDefault
340
F
  0
DICTIONARY
  5
31C0
102
{ACAD_REACTORS
330
C
102
}
330
C
100
AcDbDictionary
281
     1
  3
A0
350
31C1
  3
A1
350
31C2
  3
A2
350
31C3
  3
A3
350
31C4
  3
A4
350
31C5
  3
A5
350
31C6
  3
A6
350
31C7
  3
A7
350
31C8
  3
A8
350
31C9
  3
A9
350
31CA
  3
B0
350
31CB
  3
B1
350
31CC
  3
B2
350
31CD
  3
B3
350
31CE
  3
B4
350
31CF
  3
B5
350
31D0
  3
B6
350
31D1
  3
B7
350
31D2
  3
B8
350
31D3
  3
B9
350
31D4
  3
C0
350
31D5
  3
C1
350
31D6
  3
C2
350
31D7
  3
C3
350
31D8
  3
C4
350
31D9
  3
C5
350
31DA
  3
C6
350
31DB
  3
C7
350
31DC
  3
C8
350
31DD
  3
C9
350
31DE
  3
D0
350
31DF
  3
D1
350
31E0
  3
D2
350
31E1
  0
DICTIONARY
  5
3241
102
{ACAD_REACTORS
330
C
102
}
330
C
100
AcDbDictionary
281
     1
  3
Metric50
350
3242
  0
DICTIONARY
  5
3319
102
{ACAD_REACTORS
330
C
102
}
330
C
100
AcDbDictionary
281
     1
  3
DIMASSOC
350
69F0
  3
INDEXCTL
350
69EF
  3
SORTENTS
350
69EE
  0
DICTIONARY
  5
82F7
102
{ACAD_REACTORS
330
C
102
}
330
C
100
AcDbDictionary
281
     1
  3
AcDsRecords
350
82F9
  3
AcDsSchemas
350
82F8
1001
ACAD
1070
     2
  0
DICTIONARY
  5
3201
102
{ACAD_REACTORS
330
C
102
}
330
C
100
AcDbDictionary
281
     1
  0
XRECORD
  5
8366
102
{ACAD_REACTORS
330
C
102
}
330
C
100
AcDbXrecord
280
     1
  1
DWGPROPS COOKIE
  2

  3

  4

  6

  7

  8
d610igzo
  9

300
=
301
=
302
=
303
=
304
=
305
=
306
=
307
=
308
=
309
=
 40
0.0
 41
2457071.878731447
 42
2457072.625633924
  1

 90
        0
  0
DICTIONARY
  5
336C
102
{ACAD_REACTORS
330
336B
102
}
330
336B
100
AcDbDictionary
281
     1
  0
XRECORD
  5
326A
102
{ACAD_REACTORS
330
3269
102
}
330
3269
100
AcDbXrecord
280
     1
290
     1
  0
XRECORD
  5
327E
102
{ACAD_REACTORS
330
327D
102
}
330
327D
100
AcDbXrecord
280
     1
290
     1
  0
XRECORD
  5
32B6
102
{ACAD_REACTORS
330
32B5
102
}
330
32B5
100
AcDbXrecord
280
     1
290
     1
  0
DICTIONARY
  5
33D9
102
{ACAD_REACTORS
330
3382
102
}
330
3382
100
AcDbDictionary
281
     1
  3
ACAD_ASSOCNETWORK
350
33DA
  0
SORTENTSTABLE
  5
3383
102
{ACAD_REACTORS
330
3382
102
}
330
3382
100
AcDbSortentsTable
330
254
331
478
  5
478
331
489
  5
489
331
5074
  5
5074
331
5075
  5
5075
331
5076
  5
5076
331
5077
  5
5077
331
5079
  5
5079
331
507B
  5
507B
331
507C
  5
507C
331
507D
  5
507D
331
5084
  5
5084
331
5085
  5
5085
331
5088
  5
5088
331
508B
  5
508B
331
50A4
  5
50AB
331
50A6
  5
50AF
331
50A7
  5
50B2
331
50AC
  5
50B4
331
50AD
  5
50B5
331
50AF
  5
50BC
331
50B2
  5
50BD
331
50B5
  5
50CF
331
50BA
  5
50D0
331
50BD
  5
50D1
331
50CD
  5
50D2
331
50CE
  5
50E5
331
50CF
  5
50E6
331
50D0
  5
50E7
331
50D1
  5
50E9
331
50D2
  5
5101
331
50E6
  5
5109
331
50E9
  5
510A
331
5106
  5
5115
331
5107
  5
511D
331
5108
  5
511E
331
5118
  5
5120
331
5119
  5
5122
331
511C
  5
5129
331
511D
  5
512A
331
5120
  5
512B
331
5122
  5
5132
331
5124
  5
5134
331
512B
  5
513C
331
5130
  5
513D
331
5131
  5
5143
331
5132
  5
5148
331
513C
  5
5151
331
513D
  5
5159
331
514E
  5
515B
331
5151
  5
515C
331
5157
  5
515D
331
5159
  5
5198
331
515A
  5
51A3
331
515B
  5
51A4
331
515C
  5
51B0
331
515D
  5
51BA
331
51A3
  5
51E5
331
51A4
  5
64EA
331
51AF
  5
64EB
331
51BA
  5
64EE
331
64E8
  5
6510
331
64E9
  5
6513
331
6504
  5
6514
331
6506
  5
67EC
331
67EA
  5
67EF
331
67EB
  5
67F3
331
67EC
  5
67FC
331
67ED
  5
6801
331
67EE
  5
68A8
331
67EF
  5
68B5
331
67F1
  5
68B6
331
67F2
  5
68B7
331
6894
  5
68B8
331
6895
  5
68B9
331
68A1
  5
68BA
331
68A2
  5
68BB
331
68A3
  5
68BC
331
68A4
  5
68C1
331
68A5
  5
68CC
331
68A6
  5
68CD
331
68A7
  5
68CE
331
68A8
  5
68CF
331
68BD
  5
68E5
331
68BE
  5
68EC
331
68BF
  5
68ED
331
68C0
  5
68EF
331
68C1
  5
68F6
331
68C2
  5
68F9
331
68CE
  5
68FD
331
68E5
  5
68FE
331
68E7
  5
68FF
331
68F1
  5
6900
331
68F2
  5
6915
331
68F3
  5
6916
331
68F4
  5
691A
331
690D
  5
691B
331
690E
  5
691C
331
690F
  5
691D
331
6910
  5
691E
331
6911
  5
691F
331
6912
  5
6921
331
6913
  5
6923
331
6914
  5
6925
331
6915
  5
6927
331
6916
  5
6928
331
691C
  5
67F0
331
691D
  5
6802
331
691E
  5
67FA
331
691F
  5
6800
331
6921
  5
6992
331
6923
  5
6994
331
6925
  5
6996
331
6927
  5
69DD
331
6928
  5
69DF
331
6929
  5
69E0
331
699A
  5
6A4D
331
699B
  5
75F4
331
699C
  5
75F5
331
699D
  5
75F6
331
69B3
  5
75F8
331
69B7
  5
75FA
331
69C1
  5
75FB
331
69DD
  5
69C1
331
69DF
  5
6995
331
69E0
  5
6993
331
6A4D
  5
75FC
331
7BA5
  5
7BAC
331
814D
  5
8159
331
814E
  5
815A
331
8150
  5
815B
331
8157
  5
815C
331
8158
  5
815D
331
8159
  5
815E
331
815A
  5
815F
331
815B
  5
8162
331
815C
  5
8163
331
815D
  5
8164
331
815E
  5
8165
331
815F
  5
8166
331
8162
  5
8167
331
8163
  5
8168
331
8164
  5
8169
331
8165
  5
816A
331
8166
  5
816B
331
8167
  5
816E
331
8168
  5
8178
331
8169
  5
8179
331
816A
  5
817A
331
816B
  5
817B
331
816E
  5
817C
331
816F
  5
8180
331
8178
  5
8182
331
8179
  5
8183
331
817A
  5
8184
331
817B
  5
8185
331
817C
  5
8186
331
817D
  5
8187
331
817E
  5
8188
331
817F
  5
8189
331
8180
  5
817F
331
8182
  5
817D
331
8183
  5
817E
331
8184
  5
818A
331
8185
  5
818B
331
8186
  5
818C
331
8187
  5
818E
331
8188
  5
81A1
331
8189
  5
81A5
331
818A
  5
81A6
331
818B
  5
81A7
331
818E
  5
67FF
331
818F
  5
67FB
331
81A1
  5
81A8
331
81A5
  5
81A9
331
81A6
  5
81AA
331
81A7
  5
81AB
331
81A8
  5
81AC
331
81A9
  5
81AD
331
81AA
  5
81AE
331
81AB
  5
81AF
331
81AC
  5
81B1
331
81AD
  5
81B2
331
81AE
  5
81B3
331
81B1
  5
81B6
331
81B2
  5
81B7
331
81B3
  5
8181
331
81B6
  5
81B9
331
81B7
  5
81BA
331
81B9
  5
81BB
331
81BA
  5
81BC
331
81BB
  5
8259
331
81BC
  5
825A
331
8259
  5
825B
331
825A
  5
825C
331
825B
  5
825D
331
8266
  5
8268
331
8267
  5
8269
331
8268
  5
826A
331
8269
  5
826B
331
826A
  5
826C
331
826B
  5
826D
331
826C
  5
826E
331
826D
  5
826F
331
826E
  5
8270
331
826F
  5
8271
331
8270
  5
8272
331
8271
  5
8273
331
8272
  5
8274
331
8273
  5
8275
331
8274
  5
8276
331
8275
  5
8277
331
8276
  5
8278
331
8277
  5
8279
331
8278
  5
827A
331
8279
  5
827B
331
827A
  5
827C
331
827B
  5
827D
331
827C
  5
827E
331
827D
  5
827F
331
827E
  5
8280
331
827F
  5
8281
331
8280
  5
8282
331
8281
  5
8283
331
8282
  5
8284
331
8283
  5
8285
331
8284
  5
8286
331
8285
  5
8287
331
8286
  5
8288
331
8287
  5
8289
331
8288
  5
828A
331
8289
  5
828B
331
828A
  5
828C
331
828B
  5
828D
331
828C
  5
828E
331
828D
  5
828F
331
828E
  5
8290
331
828F
  5
8291
331
8290
  5
8292
331
8291
  5
8293
331
8292
  5
8294
331
8293
  5
8295
331
8294
  5
8296
331
8295
  5
8297
331
8296
  5
8298
331
8297
  5
8299
331
8298
  5
829A
331
8299
  5
829B
331
829A
  5
829C
331
829B
  5
829D
331
829C
  5
829E
331
829D
  5
829F
331
829E
  5
82A0
331
829F
  5
82A1
331
82A0
  5
82A2
331
82A1
  5
82A3
331
82A2
  5
82A4
331
82A3
  5
82A5
331
82A4
  5
82A6
331
82A5
  5
82A7
331
82A6
  5
82A8
331
82A7
  5
82A9
331
82A8
  5
82AA
331
82A9
  5
82AB
331
82AA
  5
82AC
331
82AB
  5
82AD
331
82AC
  5
82AE
331
82AD
  5
82AF
331
82AE
  5
82B0
331
82AF
  5
82B1
331
82B0
  5
82B2
331
82B1
  5
82B3
331
82B2
  5
82B4
331
82B3
  5
82B5
331
82B4
  5
82B6
331
82B5
  5
82B7
331
82B6
  5
82B8
331
82B7
  5
82B9
331
82B8
  5
82BA
331
82B9
  5
82BB
331
82BA
  5
82BC
331
82BB
  5
82BD
331
82BC
  5
82BE
331
82BD
  5
82BF
331
82BE
  5
82C0
331
82BF
  5
82C1
331
82C0
  5
82C2
331
82C1
  5
82C3
331
82C2
  5
82C4
331
82C3
  5
82C5
331
82C4
  5
82C6
331
82C5
  5
82C7
331
82C6
  5
82C8
331
82C7
  5
82C9
331
82C8
  5
82CA
331
82C9
  5
82CB
331
82CA
  5
82CC
331
82CB
  5
82CD
331
82CC
  5
82CE
331
82CD
  5
82CF
331
82CE
  5
82D2
331
82CF
  5
82D3
  0
DICTIONARY
  5
8336
102
{ACAD_REACTORS
330
6A3E
102
}
330
6A3E
100
AcDbDictionary
280
     1
281
     1
  0
ACDBASSOCNETWORK
  5
33DC
102
{ACAD_REACTORS
330
33DB
102
}
330
33DB
100
AcDbAssocAction
 90
        1
 90
        1
330
0
360
0
 90
        0
 90
        0
 90
        0
100
AcDbAssocNetwork
 90
        0
 90
        1
 90
        1
330
33DA
 90
        1
330
33DA
  0
ACDBDETAILVIEWSTYLE
  5
3244
102
{ACAD_REACTORS
330
3243
102
}
102
{ACAD_XDICTIONARY
360
8331
102
}
330
3243
100
AcDbModelDocViewStyle
 70
     0
  3
Metric50
290
     0
100
AcDbDetailViewStyle
 70
     0
 71
     0
 90
        3
 71
     1
340
11
 40
5.0
340
0
 40
5.0
300

 40
0.0
280
     1
 71
     2
340
16
 90
       25
 71
     3
340
11
 40
5.0
 90
        0
 40
15.0
 90
        1
300
%<\AcVar ViewDetailId>% (%<\AcVar ViewScale \f "%sn">%)
 71
     4
340
16
 90
       25
340
16
 90
       25
280
     0
  0
LAYOUT
  5
31BE
102
{ACAD_REACTORS
330
1A
102
}
330
1A
100
AcDbPlotSettings
  1

  2
none_device
  4
ISO_A2_(594.00_x_420.00_MM)
  6

 40
0.0
 41
0.0
 42
0.0
 43
0.0
 44
594.0
 45
420.0
 46
0.0
 47
0.0
 48
0.0
 49
0.0
140
0.0
141
0.0
142
1.0
143
1.0
 70
     0
 72
     1
 73
     0
 74
     0
  7

 75
     0
147
1.0
148
0.0
149
0.0
100
AcDbLayout
  1
Layout1
 70
     1
 71
     1
 10
0.0
 20
0.0
 11
594.0
 21
420.0
 12
0.0
 22
0.0
 32
0.0
 14
1.000000000000000E+20
 24
1.000000000000000E+20
 34
1.000000000000000E+20
 15
-1.000000000000000E+20
 25
-1.000000000000000E+20
 35
-1.000000000000000E+20
146
0.0
 13
0.0
 23
0.0
 33
0.0
 16
1.0
 26
0.0
 36
0.0
 17
0.0
 27
1.0
 37
0.0
 76
     0
330
255
331
8339
  0
LAYOUT
  5
31BD
102
{ACAD_REACTORS
330
1A
102
}
330
1A
100
AcDbPlotSettings
  1

  2
none_device
  4
ISO_A2_(594.00_x_420.00_MM)
  6

 40
0.0
 41
0.0
 42
0.0
 43
0.0
 44
594.0
 45
420.0
 46
0.0
 47
0.0
 48
0.0
 49
0.0
140
0.0
141
0.0
142
1.0
143
1.0
 70
  1024
 72
     1
 73
     0
 74
     0
  7

 75
     0
147
1.0
148
0.0
149
0.0
100
AcDbLayout
  1
Model
 70
     0
 71
     0
 10
331.4503864610733
 20
-1053.486036146937
 11
2418.495084506915
 21
4355.013943545031
 12
0.0
 22
0.0
 32
0.0
 14
516.4570299150969
 24
-836.7620535032912
 34
0.0
 15
2056.457029915097
 25
4121.092277719961
 35
0.0
146
0.0
 13
0.0
 23
0.0
 33
0.0
 16
1.0
 26
0.0
 36
0.0
 17
0.0
 27
1.0
 37
0.0
 76
     0
330
254
331
1F4
  0
MATERIAL
  5
8369
102
{ACAD_REACTORS
330
8367
102
}
330
8367
100
AcDbMaterial
  1
ByBlock
  0
MATERIAL
  5
8368
102
{ACAD_REACTORS
330
8367
102
}
330
8367
100
AcDbMaterial
  1
ByLayer
  0
MATERIAL
  5
836A
102
{ACAD_REACTORS
330
8367
102
}
330
8367
100
AcDbMaterial
  1
Global
  0
MLINESTYLE
  5
18
102
{ACAD_REACTORS
330
17
102
}
330
17
100
AcDbMlineStyle
  2
STANDARD
 70
     0
  3

 62
   256
 51
90.0
 52
90.0
 71
     2
 49
0.5
 62
   256
  6
BYLAYER
 49
-0.5
 62
   256
  6
BYLAYER
  0
ACDBPLACEHOLDER
  5
F
102
{ACAD_REACTORS
330
E
102
}
330
E
  0
SCALE
  5
31C1
102
{ACAD_REACTORS
330
31C0
102
}
330
31C0
100
AcDbScale
 70
     0
300
1:1
140
1.0
141
1.0
290
     1
  0
SCALE
  5
31C2
102
{ACAD_REACTORS
330
31C0
102
}
330
31C0
100
AcDbScale
 70
     0
300
1:2
140
1.0
141
2.0
290
     0
  0
SCALE
  5
31C3
102
{ACAD_REACTORS
330
31C0
102
}
330
31C0
100
AcDbScale
 70
     0
300
1:4
140
1.0
141
4.0
290
     0
  0
SCALE
  5
31C4
102
{ACAD_REACTORS
330
31C0
102
}
330
31C0
100
AcDbScale
 70
     0
300
1:5
140
1.0
141
5.0
290
     0
  0
SCALE
  5
31C5
102
{ACAD_REACTORS
330
31C0
102
}
330
31C0
100
AcDbScale
 70
     0
300
1:8
140
1.0
141
8.0
290
     0
  0
SCALE
  5
31C6
102
{ACAD_REACTORS
330
31C0
102
}
330
31C0
100
AcDbScale
 70
     0
300
1:10
140
1.0
141
10.0
290
     0
  0
SCALE
  5
31C7
102
{ACAD_REACTORS
330
31C0
102
}
330
31C0
100
AcDbScale
 70
     0
300
1:16
140
1.0
141
16.0
290
     0
  0
SCALE
  5
31C8
102
{ACAD_REACTORS
330
31C0
102
}
330
31C0
100
AcDbScale
 70
     0
300
1:20
140
1.0
141
20.0
290
     0
  0
SCALE
  5
31C9
102
{ACAD_REACTORS
330
31C0
102
}
330
31C0
100
AcDbScale
 70
     0
300
1:30
140
1.0
141
30.0
290
     0
  0
SCALE
  5
31CA
102
{ACAD_REACTORS
330
31C0
102
}
330
31C0
100
AcDbScale
 70
     0
300
1:40
140
1.0
141
40.0
290
     0
  0
SCALE
  5
31CB
102
{ACAD_REACTORS
330
31C0
102
}
330
31C0
100
AcDbScale
 70
     0
300
1:50
140
1.0
141
50.0
290
     0
  0
SCALE
  5
31CC
102
{ACAD_REACTORS
330
31C0
102
}
330
31C0
100
AcDbScale
 70
     0
300
1:100
140
1.0
141
100.0
290
     0
  0
SCALE
  5
31CD
102
{ACAD_REACTORS
330
31C0
102
}
330
31C0
100
AcDbScale
 70
     0
300
2:1
140
2.0
141
1.0
290
     0
  0
SCALE
  5
31CE
102
{ACAD_REACTORS
330
31C0
102
}
330
31C0
100
AcDbScale
 70
     0
300
4:1
140
4.0
141
1.0
290
     0
  0
SCALE
  5
31CF
102
{ACAD_REACTORS
330
31C0
102
}
330
31C0
100
AcDbScale
 70
     0
300
8:1
140
8.0
141
1.0
290
     0
  0
SCALE
  5
31D0
102
{ACAD_REACTORS
330
31C0
102
}
330
31C0
100
AcDbScale
 70
     0
300
10:1
140
10.0
141
1.0
290
     0
  0
SCALE
  5
31D1
102
{ACAD_REACTORS
330
31C0
102
}
330
31C0
100
AcDbScale
 70
     0
300
100:1
140
100.0
141
1.0
290
     0
  0
SCALE
  5
31D2
102
{ACAD_REACTORS
330
31C0
102
}
330
31C0
100
AcDbScale
 70
     0
300
1/128" = 1'-0"
140
0.0078125
141
12.0
290
     0
  0
SCALE
  5
31D3
102
{ACAD_REACTORS
330
31C0
102
}
330
31C0
100
AcDbScale
 70
     0
300
1/64" = 1'-0"
140
0.015625
141
12.0
290
     0
  0
SCALE
  5
31D4
102
{ACAD_REACTORS
330
31C0
102
}
330
31C0
100
AcDbScale
 70
     0
300
1/32" = 1'-0"
140
0.03125
141
12.0
290
     0
  0
SCALE
  5
31D5
102
{ACAD_REACTORS
330
31C0
102
}
330
31C0
100
AcDbScale
 70
     0
300
1/16" = 1'-0"
140
0.0625
141
12.0
290
     0
  0
SCALE
  5
31D6
102
{ACAD_REACTORS
330
31C0
102
}
330
31C0
100
AcDbScale
 70
     0
300
3/32" = 1'-0"
140
0.09375
141
12.0
290
     0
  0
SCALE
  5
31D7
102
{ACAD_REACTORS
330
31C0
102
}
330
31C0
100
AcDbScale
 70
     0
300
1/8" = 1'-0"
140
0.125
141
12.0
290
     0
  0
SCALE
  5
31D8
102
{ACAD_REACTORS
330
31C0
102
}
330
31C0
100
AcDbScale
 70
     0
300
3/16" = 1'-0"
140
0.1875
141
12.0
290
     0
  0
SCALE
  5
31D9
102
{ACAD_REACTORS
330
31C0
102
}
330
31C0
100
AcDbScale
 70
     0
300
1/4" = 1'-0"
140
0.25
141
12.0
290
     0
  0
SCALE
  5
31DA
102
{ACAD_REACTORS
330
31C0
102
}
330
31C0
100
AcDbScale
 70
     0
300
3/8" = 1'-0"
140
0.375
141
12.0
290
     0
  0
SCALE
  5
31DB
102
{ACAD_REACTORS
330
31C0
102
}
330
31C0
100
AcDbScale
 70
     0
300
1/2" = 1'-0"
140
0.5
141
12.0
290
     0
  0
SCALE
  5
31DC
102
{ACAD_REACTORS
330
31C0
102
}
330
31C0
100
AcDbScale
 70
     0
300
3/4" = 1'-0"
140
0.75
141
12.0
290
     0
  0
SCALE
  5
31DD
102
{ACAD_REACTORS
330
31C0
102
}
330
31C0
100
AcDbScale
 70
     0
300
1" = 1'-0"
140
1.0
141
12.0
290
     0
  0
SCALE
  5
31DE
102
{ACAD_REACTORS
330
31C0
102
}
330
31C0
100
AcDbScale
 70
     0
300
1-1/2" = 1'-0"
140
1.5
141
12.0
290
     0
  0
SCALE
  5
31DF
102
{ACAD_REACTORS
330
31C0
102
}
330
31C0
100
AcDbScale
 70
     0
300
3" = 1'-0"
140
3.0
141
12.0
290
     0
  0
SCALE
  5
31E0
102
{ACAD_REACTORS
330
31C0
102
}
330
31C0
100
AcDbScale
 70
     0
300
6" = 1'-0"
140
6.0
141
12.0
290
     0
  0
SCALE
  5
31E1
102
{ACAD_REACTORS
330
31C0
102
}
330
31C0
100
AcDbScale
 70
     0
300
1'-0" = 1'-0"
140
12.0
141
12.0
290
     0
  0
ACDBSECTIONVIEWSTYLE
  5
3242
102
{ACAD_REACTORS
330
3241
102
}
102
{ACAD_XDICTIONARY
360
832F
102
}
330
3241
100
AcDbModelDocViewStyle
 70
     0
  3
Metric50
290
     0
100
AcDbSectionViewStyle
 70
     0
 71
     0
 90
      102
 71
     1
340
11
 40
5.0
340
0
340
0
 40
5.0
300
I, O, Q, S, X, Z
 40
10.0
 90
        0
 40
2.5
 90
        0
 71
     2
340
16
 90
       25
340
16
 90
       50
 40
5.0
 40
2.5
 40
5.0
 71
     3
340
11
 40
5.0
 90
        0
 40
15.0
 90
        1
300
%<\AcVar ViewSectionStartId>%-%<\AcVar ViewSectionEndId>% (%<\AcVar ViewScale \f "%sn">%)
 71
     4
300
ANSI31
 40
1.0
 90
        0
290
     0
290
     0
 90
        6
 40
0.0
 40
1.570796326794896
 40
0.2617993877991494
 40
1.308996938995747
 40
-0.2617993877991494
 40
1.832595714594044
  0
DICTIONARYVAR
  5
69F0
102
{ACAD_REACTORS
330
3319
102
}
330
3319
100
DictionaryVariables
280
     0
  1
1
  0
DICTIONARYVAR
  5
69EF
102
{ACAD_REACTORS
330
3319
102
}
330
3319
100
DictionaryVariables
280
     0
  1
0
  0
DICTIONARYVAR
  5
69EE
102
{ACAD_REACTORS
330
3319
102
}
330
3319
100
DictionaryVariables
280
     0
  1
127
  0
DICTIONARY
  5
82F9
102
{ACAD_REACTORS
330
82F7
102
}
330
82F7
100
AcDbDictionary
281
     1
  0
DICTIONARY
  5
82F8
102
{ACAD_REACTORS
330
82F7
102
}
330
82F7
100
AcDbDictionary
281
     1
  3
140698202423072
350
82F2
  3
140698202423088
350
82F3
  3
140698202423104
350
82F4
  3
140698202423120
350
82F5
  3
140698202423136
350
82F6
  0
ACDBASSOCNETWORK
  5
33DA
102
{ACAD_REACTORS
330
33D9
102
}
330
33D9
100
AcDbAssocAction
 90
        1
 90
        1
330
33DC
360
0
 90
        1
 90
        0
 90
        0
100
AcDbAssocNetwork
 90
        0
 90
        2
 90
        1
360
69C4
 90
        1
330
69C4
  0
DICTIONARY
  5
8331
330
3244
100
AcDbDictionary
280
     1
281
     1
  3
ACAD_XREC_ROUNDTRIP
360
8332
  0
DICTIONARY
  5
832F
330
3242
100
AcDbDictionary
280
     1
281
     1
  3
ACAD_XREC_ROUNDTRIP
360
8330
  0
XRECORD
  5
82F2
102
{ACAD_REACTORS
330
82F8
102
}
330
82F8
100
AcDbXrecord
280
     1
  1
AcDb_Thumbnail_Schema
102
{ATTRRECORD
341
82F3
  2
AcDbDs::TreatedAsObjectData
280
     1
291
     1
102
ATTRRECORD}
102
{ATTRRECORD
341
82F4
  2
AcDbDs::Legacy
280
     1
291
     1
102
ATTRRECORD}
  2
AcDbDs::ID
280
    10
 91
        8
102
{ATTRRECORD
341
82F5
  2
AcDs:Indexable
280
     1
291
     1
102
ATTRRECORD}
102
{ATTRRECORD
341
82F6
  2
AcDbDs::HandleAttribute
280
     7
282
     1
102
ATTRRECORD}
  2
Thumbnail_Data
280
    15
 91
        0
  0
XRECORD
  5
82F3
102
{ACAD_REACTORS
330
82F8
102
}
330
82F8
100
AcDbXrecord
280
     1
  1
AcDbDs::TreatedAsObjectDataSchema
  2
AcDbDs::TreatedAsObjectData
280
     1
 91
        0
  0
XRECORD
  5
82F4
102
{ACAD_REACTORS
330
82F8
102
}
330
82F8
100
AcDbXrecord
280
     1
  1
AcDbDs::LegacySchema
  2
AcDbDs::Legacy
280
     1
 91
        0
  0
XRECORD
  5
82F5
102
{ACAD_REACTORS
330
82F8
102
}
330
82F8
100
AcDbXrecord
280
     1
  1
AcDbDs::IndexedPropertySchema
  2
AcDs:Indexable
280
     1
 91
        0
  0
XRECORD
  5
82F6
102
{ACAD_REACTORS
330
82F8
102
}
330
82F8
100
AcDbXrecord
280
     1
  1
AcDbDs::HandleAttributeSchema
  2
AcDbDs::HandleAttribute
280
     7
 91
        1
284
     1
  0
ACDBASSOCACTION
  5
69C4
330
33DA
100
AcDbAssocAction
 90
        1
 90
        1
330
33DA
360
69C5
 90
        2
 90
        3
 90
        3
360
69C8
360
69C9
360
69CA
  0
XRECORD
  5
8332
102
{ACAD_REACTORS
330
8331
102
}
330
8331
100
AcDbXrecord
280
     1
102
DISPLAYNAME
  1
Metric50
102
FLAGS
 90
        0
  0
XRECORD
  5
8330
102
{ACAD_REACTORS
330
832F
102
}
330
832F
100
AcDbXrecord
280
     1
102
DISPLAYNAME
  1
Metric50
102
FLAGS
 90
        0
  0
ACDBASSOCARRAYACTIONBODY
  5
69C5
330
69C4
100
AcDbAssocActionBody
 90
        1
100
AcDbAssocParamBasedActionBody
 90
        0
 90
        0
 90
        3
360
69C6
360
69C7
360
69CB
 90
        0
 90
       10
 90
        0
  1
FillAngle
 90
        2
 90
        1
 40
6.283185307179584
330
0
330
0
 90
        0
  1
ItemSpacing
 90
        2
 90
        1
 40
0.3926990816987241
330
0
330
0
 90
        0
  1
Items
 90
        0
 90
        1
 90
       16
330
0
330
0
 90
        0
  1
LevelSpacing
 90
        1
 90
        1
 40
1.0
330
0
330
0
 90
        0
  1
Levels
 90
        0
 90
        1
 90
        1
330
0
330
0
 90
        0
  1
RowElevation
 90
        1
 90
        1
 40
0.0
330
0
330
0
 90
        0
  1
RowSpacing
 90
        1
 90
        1
 40
12.00000002999968
330
0
330
0
 90
        0
  1
Rows
 90
        0
 90
        1
 90
        1
330
0
330
0
 90
        0
  1
Radius
 90
        1
 90
        1
 40
429.9999999999998
330
0
330
0
 90
        0
  1
StartAngle
 90
        2
 90
        1
 40
0.1963495408493626
330
0
330
0
100
AcDbAssocArrayActionBody
 90
        1
  1
AcDbAssocArrayPolarParameters
 90
        0
 90
       16
  1
AcDbAssocArrayItem
100
AcDbAssocArrayItem
 90
        0
 90
        0
 90
        0
 90
        0
 90
        8
 11
1708.194700488486
 21
2815.452154575304
 31
0.0
330
69CD
100
AcDbAssocArrayItem
 90
        0
 90
        1
 90
        0
 90
        0
 90
       12
 40
0.9238795325112867
 40
-0.38268343236509
 40
0.0
 40
1643.988963205191
 40
0.3826834323650898
 40
0.9238795325112867
 40
0.0
 40
2970.458516306798
 40
0.0
 40
0.0
 40
1.0
 40
0.0
 40
0.0
 40
0.0
 40
0.0
 40
1.0
330
69CE
100
AcDbAssocArrayItem
 90
        0
 90
        2
 90
        0
 90
        0
 90
       12
 40
0.7071067811865479
 40
-0.7071067811865479
 40
0.0
 40
1525.352230113526
 40
0.7071067811865479
 40
0.7071067811865475
 40
0.0
 40
3089.095249398463
 40
0.0
 40
0.0
 40
1.0
 40
0.0
 40
0.0
 40
0.0
 40
0.0
 40
1.0
330
69CF
100
AcDbAssocArrayItem
 90
        0
 90
        3
 90
        0
 90
        0
 90
       12
 40
0.3826834323650901
 40
-0.9238795325112867
 40
0.0
 40
1370.345868382032
 40
0.9238795325112867
 40
0.3826834323650897
 40
0.0
 40
3153.300986681758
 40
0.0
 40
0.0
 40
1.0
 40
0.0
 40
0.0
 40
0.0
 40
0.0
 40
1.0
330
69D0
100
AcDbAssocArrayItem
 90
        0
 90
        4
 90
        0
 90
        0
 90
       12
 40
0.0000000000000005
 40
-1.0
 40
0.0
 40
1202.568191448162
 40
1.0
 40
0.0
 40
0.0
 40
3153.300986681758
 40
0.0
 40
0.0
 40
1.0
 40
0.0
 40
0.0
 40
0.0
 40
0.0
 40
1.0
330
69D1
100
AcDbAssocArrayItem
 90
        0
 90
        5
 90
        0
 90
        0
 90
       12
 40
-0.3826834323650892
 40
-0.9238795325112864
 40
0.0
 40
1047.561829716668
 40
0.9238795325112867
 40
-0.38268343236509
 40
0.0
 40
3089.095249398463
 40
0.0
 40
0.0
 40
0.9999999999999998
 40
0.0
 40
0.0
 40
0.0
 40
0.0
 40
1.0
330
69D2
100
AcDbAssocArrayItem
 90
        0
 90
        6
 90
        0
 90
        0
 90
       12
 40
-0.7071067811865474
 40
-0.7071067811865474
 40
0.0
 40
928.9250966250024
 40
0.7071067811865479
 40
-0.7071067811865476
 40
0.0
 40
2970.458516306798
 40
0.0
 40
0.0
 40
1.0
 40
0.0
 40
0.0
 40
0.0
 40
0.0
 40
1.0
330
69D3
100
AcDbAssocArrayItem
 90
        0
 90
        7
 90
        0
 90
        0
 90
       12
 40
-0.9238795325112867
 40
-0.3826834323650901
 40
0.0
 40
864.7193593417082
 40
0.3826834323650905
 40
-0.9238795325112866
 40
0.0
 40
2815.452154575304
 40
0.0
 40
0.0
 40
1.0
 40
0.0
 40
0.0
 40
0.0
 40
0.0
 40
1.0
330
69D4
100
AcDbAssocArrayItem
 90
        0
 90
        8
 90
        0
 90
        0
 90
       12
 40
-1.0
 40
0.0000000000000002
 40
0.0
 40
864.7193593417082
 40
0.0
 40
-1.0
 40
0.0
 40
2647.674477641434
 40
0.0
 40
0.0
 40
1.0
 40
0.0
 40
0.0
 40
0.0
 40
0.0
 40
1.0
330
69D5
100
AcDbAssocArrayItem
 90
        0
 90
        9
 90
        0
 90
        0
 90
       12
 40
-0.9238795325112864
 40
0.3826834323650904
 40
0.0
 40
928.9250966250031
 40
-0.3826834323650904
 40
-0.9238795325112864
 40
0.0
 40
2492.668115909939
 40
0.0
 40
0.0
 40
1.0
 40
0.0
 40
0.0
 40
0.0
 40
0.0
 40
1.0
330
69D6
100
AcDbAssocArrayItem
 90
        0
 90
       10
 90
        0
 90
        0
 90
       12
 40
-0.7071067811865479
 40
0.7071067811865474
 40
0.0
 40
1047.561829716668
 40
-0.7071067811865472
 40
-0.7071067811865479
 40
0.0
 40
2374.031382818274
 40
0.0
 40
0.0
 40
1.0
 40
0.0
 40
0.0
 40
0.0
 40
0.0
 40
1.0
330
69D7
100
AcDbAssocArrayItem
 90
        0
 90
       11
 90
        0
 90
        0
 90
       12
 40
-0.3826834323650913
 40
0.9238795325112862
 40
0.0
 40
1202.568191448162
 40
-0.9238795325112864
 40
-0.3826834323650905
 40
0.0
 40
2309.82564553498
 40
0.0
 40
0.0
 40
1.0
 40
0.0
 40
0.0
 40
0.0
 40
0.0
 40
1.0
330
69D8
100
AcDbAssocArrayItem
 90
        0
 90
       12
 90
        0
 90
        0
 90
       12
 40
-0.0000000000000016
 40
0.9999999999999998
 40
0.0
 40
1370.345868382032
 40
-1.0
 40
-0.0000000000000004
 40
0.0
 40
2309.82564553498
 40
0.0
 40
0.0
 40
1.0
 40
0.0
 40
0.0
 40
0.0
 40
0.0
 40
1.0
330
69D9
100
AcDbAssocArrayItem
 90
        0
 90
       13
 90
        0
 90
        0
 90
       12
 40
0.3826834323650889
 40
0.9238795325112866
 40
0.0
 40
1525.352230113526
 40
-0.9238795325112876
 40
0.3826834323650897
 40
0.0
 40
2374.031382818275
 40
0.0
 40
0.0
 40
1.0
 40
0.0
 40
0.0
 40
0.0
 40
0.0
 40
1.0
330
69DA
100
AcDbAssocArrayItem
 90
        0
 90
       14
 90
        0
 90
        0
 90
       12
 40
0.7071067811865457
 40
0.7071067811865483
 40
0.0
 40
1643.988963205191
 40
-0.7071067811865499
 40
0.7071067811865464
 40
0.0
 40
2492.66811590994
 40
0.0
 40
0.0
 40
1.0
 40
0.0
 40
0.0
 40
0.0
 40
0.0
 40
1.0
330
69DB
100
AcDbAssocArrayItem
 90
        0
 90
       15
 90
        0
 90
        0
 90
       12
 40
0.9238795325112862
 40
0.3826834323650905
 40
0.0
 40
1708.194700488486
 40
-0.3826834323650923
 40
0.9238795325112862
 40
0.0
 40
2647.674477641434
 40
0.0
 40
0.0
 40
1.0
 40
0.0
 40
0.0
 40
0.0
 40
0.0
 40
1.0
330
69DC
 40
1.0
 40
0.0
 40
0.0
 40
0.0
 40
0.0
 40
1.0
 40
0.0
 40
619.5289616115915
 40
0.0
 40
0.0
 40
1.0
 40
0.0
 40
0.0
 40
0.0
 40
0.0
 40
1.0
  0
ACDBASSOCDEPENDENCY
  5
69C8
330
69C4
100
AcDbAssocDependency
 90
        2
 90
        1
290
     0
290
     1
290
     1
290
     1
 90
        0
330
69BE
290
     0
330
0
330
0
360
0
 90
        1
  0
ACDBASSOCDEPENDENCY
  5
69C9
330
69C4
100
AcDbAssocDependency
 90
        2
 90
        1
290
     1
290
     0
290
     1
290
     1
 90
        0
330
69BB
290
     0
330
0
330
0
360
0
 90
        2
  0
ACDBASSOCDEPENDENCY
  5
69CA
330
69C4
100
AcDbAssocDependency
 90
        2
 90
        0
290
     1
290
     1
290
     1
290
     1
 90
-2147483648
330
69C1
290
     0
330
0
330
0
360
0
 90
        3
  0
ACDBASSOCVERTEXACTIONPARAM
  5
69C6
330
69C5
100
AcDbAssocActionParam
 90
        0
  1
BaseNormal
100
AcDbAssocSingleDependencyActionParam
 90
        0
330
0
100
AcDbAssocVertexActionParam
 90
        0
 10
0.0
 20
0.0
 30
1.0
  0
ACDBASSOCVERTEXACTIONPARAM
  5
69C7
330
69C5
100
AcDbAssocActionParam
 90
        0
  1
Origin
100
AcDbAssocSingleDependencyActionParam
 90
        0
330
0
100
AcDbAssocVertexActionParam
 90
        0
 10
1286.457029915097
 20
2731.563316108369
 30
0.0
  0
ACDBASSOCVERTEXACTIONPARAM
  5
69CB
330
69C5
100
AcDbAssocActionParam
 90
        0
  1
basePoint
100
AcDbAssocSingleDependencyActionParam
 90
        0
330
0
100
AcDbAssocVertexActionParam
 90
        0
 10
0.0
 20
0.0
 30
0.0
  0
ENDSEC
  0
EOF
