  0
SECTION
  2
HEADER
  9
$ACADVER
  1
AC1015
  9
$ACADMAINTVER
 70
     6
  9
$DWGCODEPAGE
  3
ANSI_1250
  9
$INSBASE
 10
0.0
 20
0.0
 30
0.0
  9
$EXTMIN
 10
281.4416065206774
 20
-139.8081336605964
 30
0.0
  9
$EXTMAX
 10
1264.441606520678
 20
2960.410218849573
 30
0.0
  9
$LIMMIN
 10
200.3325748355737
 20
-234.4170215128838
  9
$LIMMAX
 10
1395.099240876594
 20
3029.498619236047
  9
$ORTHOMODE
 70
     1
  9
$REGENMODE
 70
     1
  9
$FILLMODE
 70
     1
  9
$QTEXTMODE
 70
     0
  9
$MIRRTEXT
 70
     1
  9
$LTSCALE
 40
32.67
  9
$ATTMODE
 70
     1
  9
$TEXTSIZE
 40
0.2
  9
$TRACEWID
 40
0.05
  9
$TEXTSTYLE
  7
STANDARD
  9
$CLAYER
  8
0
  9
$CELTYPE
  6
BYLAYER
  9
$CECOLOR
 62
   256
  9
$CELTSCALE
 40
1.0
  9
$DISPSILH
 70
     0
  9
$DIMSCALE
 40
1.0
  9
$DIMASZ
 40
3.5
  9
$DIMEXO
 40
0.0
  9
$DIMDLI
 40
22.572
  9
$DIMRND
 40
0.0
  9
$DIMDLE
 40
0.0
  9
$DIMEXE
 40
1.0
  9
$DIMTP
 40
0.04
  9
$DIMTM
 40
0.04
  9
$DIMTXT
 40
2.5
  9
$DIMCEN
 40
5.346
  9
$DIMTSZ
 40
0.0
  9
$DIMTOL
 70
     1
  9
$DIMLIM
 70
     0
  9
$DIMTIH
 70
     1
  9
$DIMTOH
 70
     1
  9
$DIMSE1
 70
     0
  9
$DIMSE2
 70
     0
  9
$DIMTAD
 70
     0
  9
$DIMZIN
 70
     0
  9
$DIMBLK
  1

  9
$DIMASO
 70
     1
  9
$DIMSHO
 70
     1
  9
$DIMPOST
  1

  9
$DIMAPOST
  1

  9
$DIMALT
 70
     0
  9
$DIMALTD
 70
     2
  9
$DIMALTF
 40
25.4
  9
$DIMLFAC
 40
1.0
  9
$DIMTOFL
 70
     0
  9
$DIMTVP
 40
0.0
  9
$DIMTIX
 70
     0
  9
$DIMSOXD
 70
     0
  9
$DIMSAH
 70
     0
  9
$DIMBLK1
  1

  9
$DIMBLK2
  1

  9
$DIMSTYLE
  2
STANDARD
  9
$DIMCLRD
 70
     0
  9
$DIMCLRE
 70
     0
  9
$DIMCLRT
 70
     0
  9
$DIMTFAC
 40
1.0
  9
$DIMGAP
 40
0.625
  9
$DIMJUST
 70
     0
  9
$DIMSD1
 70
     0
  9
$DIMSD2
 70
     0
  9
$DIMTOLJ
 70
     1
  9
$DIMTZIN
 70
     0
  9
$DIMALTZ
 70
     0
  9
$DIMALTTZ
 70
     0
  9
$DIMUPT
 70
     0
  9
$DIMDEC
 70
     4
  9
$DIMTDEC
 70
     4
  9
$DIMALTU
 70
     2
  9
$DIMALTTD
 70
     2
  9
$DIMTXSTY
  7
STANDARD
  9
$DIMAUNIT
 70
     0
  9
$DIMADEC
 70
     0
  9
$DIMALTRND
 40
0.0
  9
$DIMAZIN
 70
     0
  9
$DIMDSEP
 70
    44
  9
$DIMATFIT
 70
     3
  9
$DIMFRAC
 70
     0
  9
$DIMLDRBLK
  1

  9
$DIMLUNIT
 70
     2
  9
$DIMLWD
 70
    -2
  9
$DIMLWE
 70
    -2
  9
$DIMTMOVE
 70
     0
  9
$LUNITS
 70
     2
  9
$LUPREC
 70
     4
  9
$SKETCHINC
 40
0.1
  9
$FILLETRAD
 40
0.5
  9
$AUNITS
 70
     0
  9
$AUPREC
 70
     0
  9
$MENU
  1
.
  9
$ELEVATION
 40
0.0
  9
$PELEVATION
 40
0.0
  9
$THICKNESS
 40
0.0
  9
$LIMCHECK
 70
     0
  9
$CHAMFERA
 40
0.0
  9
$CHAMFERB
 40
0.0
  9
$CHAMFERC
 40
0.0
  9
$CHAMFERD
 40
0.0
  9
$SKPOLY
 70
     0
  9
$TDCREATE
 40
2457071.061227188
  9
$TDUCREATE
 40
2457071.019560521
  9
$TDUPDATE
 40
2457072.663515463
  9
$TDUUPDATE
 40
2457072.621848796
  9
$TDINDWG
 40
0.0503116088
  9
$TDUSRTIMER
 40
2457072.621237813
  9
$USRTIMER
 70
     1
  9
$ANGBASE
 50
0.0
  9
$ANGDIR
 70
     0
  9
$PDMODE
 70
     3
  9
$PDSIZE
 40
6.0
  9
$PLINEWID
 40
0.0
  9
$SPLFRAME
 70
     0
  9
$SPLINETYPE
 70
     6
  9
$SPLINESEGS
 70
     8
  9
$HANDSEED
  5
3EC6
  9
$SURFTAB1
 70
     6
  9
$SURFTAB2
 70
     6
  9
$SURFTYPE
 70
     6
  9
$SURFU
 70
     6
  9
$SURFV
 70
     6
  9
$UCSBASE
  2

  9
$UCSNAME
  2

  9
$UCSORG
 10
0.0
 20
0.0
 30
0.0
  9
$UCSXDIR
 10
1.0
 20
0.0
 30
0.0
  9
$UCSYDIR
 10
0.0
 20
1.0
 30
0.0
  9
$UCSORTHOREF
  2

  9
$UCSORTHOVIEW
 70
     0
  9
$UCSORGTOP
 10
0.0
 20
0.0
 30
0.0
  9
$UCSORGBOTTOM
 10
0.0
 20
0.0
 30
0.0
  9
$UCSORGLEFT
 10
0.0
 20
0.0
 30
0.0
  9
$UCSORGRIGHT
 10
0.0
 20
0.0
 30
0.0
  9
$UCSORGFRONT
 10
0.0
 20
0.0
 30
0.0
  9
$UCSORGBACK
 10
0.0
 20
0.0
 30
0.0
  9
$PUCSBASE
  2

  9
$PUCSNAME
  2

  9
$PUCSORG
 10
0.0
 20
0.0
 30
0.0
  9
$PUCSXDIR
 10
1.0
 20
0.0
 30
0.0
  9
$PUCSYDIR
 10
0.0
 20
1.0
 30
0.0
  9
$PUCSORTHOREF
  2

  9
$PUCSORTHOVIEW
 70
     0
  9
$PUCSORGTOP
 10
0.0
 20
0.0
 30
0.0
  9
$PUCSORGBOTTOM
 10
0.0
 20
0.0
 30
0.0
  9
$PUCSORGLEFT
 10
0.0
 20
0.0
 30
0.0
  9
$PUCSORGRIGHT
 10
0.0
 20
0.0
 30
0.0
  9
$PUCSORGFRONT
 10
0.0
 20
0.0
 30
0.0
  9
$PUCSORGBACK
 10
0.0
 20
0.0
 30
0.0
  9
$USERI1
 70
     0
  9
$USERI2
 70
     0
  9
$USERI3
 70
     0
  9
$USERI4
 70
     0
  9
$USERI5
 70
     0
  9
$USERR1
 40
0.0
  9
$USERR2
 40
0.0
  9
$USERR3
 40
0.0
  9
$USERR4
 40
0.0
  9
$USERR5
 40
0.0
  9
$WORLDVIEW
 70
     1
  9
$SHADEDGE
 70
     3
  9
$SHADEDIF
 70
    70
  9
$TILEMODE
 70
     1
  9
$MAXACTVP
 70
    64
  9
$PINSBASE
 10
0.0
 20
0.0
 30
0.0
  9
$PLIMCHECK
 70
     0
  9
$PEXTMIN
 10
1.000000000000000E+20
 20
1.000000000000000E+20
 30
1.000000000000000E+20
  9
$PEXTMAX
 10
-1.000000000000000E+20
 20
-1.000000000000000E+20
 30
-1.000000000000000E+20
  9
$PLIMMIN
 10
-59.39999999999998
 20
-42.0
  9
$PLIMMAX
 10
534.6
 20
378.0
  9
$UNITMODE
 70
     0
  9
$VISRETAIN
 70
     1
  9
$PLINEGEN
 70
     0
  9
$PSLTSCALE
 70
     1
  9
$TREEDEPTH
 70
  3020
  9
$CMLSTYLE
  2
Standard
  9
$CMLJUST
 70
     0
  9
$CMLSCALE
 40
1.0
  9
$PROXYGRAPHICS
 70
     1
  9
$MEASUREMENT
 70
     1
  9
$CELWEIGHT
370
    -1
  9
$ENDCAPS
280
     0
  9
$JOINSTYLE
280
     0
  9
$LWDISPLAY
290
     0
  9
$INSUNITS
 70
     4
  9
$HYPERLINKBASE
  1

  9
$STYLESHEET
  1

  9
$XEDIT
290
     1
  9
$CEPSNTYPE
380
     0
  9
$PSTYLEMODE
290
     1
  9
$FINGERPRINTGUID
  2
{5CA6D00F-3FC2-44D9-9082-36BFD8A0D6D1}
  9
$VERSIONGUID
  2
{2D1692B0-758B-4C6B-A4F3-5849056C1921}
  9
$EXTNAMES
290
     1
  9
$PSVPSCALE
 40
0.0
  9
$OLESTARTUP
290
     0
  0
ENDSEC
  0
SECTION
  2
CLASSES
  0
CLASS
  1
ACDBDICTIONARYWDFLT
  2
AcDbDictionaryWithDefault
  3
ObjectDBX Classes
 90
        0
280
     0
281
     0
  0
CLASS
  1
ACDBPLACEHOLDER
  2
AcDbPlaceHolder
  3
ObjectDBX Classes
 90
        0
280
     0
281
     0
  0
CLASS
  1
LAYOUT
  2
AcDbLayout
  3
ObjectDBX Classes
 90
        0
280
     0
281
     0
  0
CLASS
  1
RASTERVARIABLES
  2
AcDbRasterVariables
  3
ISM
 90
        0
280
     0
281
     0
  0
CLASS
  1
IMAGEDEF
  2
AcDbRasterImageDef
  3
ISM
 90
        0
280
     0
281
     0
  0
CLASS
  1
IMAGEDEF_REACTOR
  2
AcDbRasterImageDefReactor
  3
ISM
 90
        1
280
     0
281
     0
  0
CLASS
  1
IMAGE
  2
AcDbRasterImage
  3
ISM
 90
      127
280
     0
281
     1
  0
CLASS
  1
SCALE
  2
AcDbScale
  3
ObjectDBX Classes
 90
     1153
280
     0
281
     0
  0
CLASS
  1
VISUALSTYLE
  2
AcDbVisualStyle
  3
ObjectDBX Classes
 90
     4095
280
     0
281
     0
  0
CLASS
  1
MATERIAL
  2
AcDbMaterial
  3
ObjectDBX Classes
 90
     1153
280
     0
281
     0
  0
CLASS
  1
TABLESTYLE
  2
AcDbTableStyle
  3
ObjectDBX Classes
 90
     4095
280
     0
281
     0
  0
CLASS
  1
SUN
  2
AcDbSun
  3
SCENEOE
 90
     1153
280
     0
281
     0
  0
CLASS
  1
MLEADERSTYLE
  2
AcDbMLeaderStyle
  3
ACDB_MLEADERSTYLE_CLASS
 90
     4095
280
     0
281
     0
  0
CLASS
  1
ACDBSECTIONVIEWSTYLE
  2
AcDbSectionViewStyle
  3
ObjectDBX Classes
 90
     1025
280
     1
281
     0
  0
CLASS
  1
ACDBDETAILVIEWSTYLE
  2
AcDbDetailViewStyle
  3
ObjectDBX Classes
 90
     1025
280
     1
281
     0
  0
CLASS
  1
DICTIONARYVAR
  2
AcDbDictionaryVar
  3
ObjectDBX Classes
 90
        0
280
     0
281
     0
  0
CLASS
  1
SORTENTSTABLE
  2
AcDbSortentsTable
  3
ObjectDBX Classes
 90
        0
280
     0
281
     0
  0
CLASS
  1
ACARRAYJIGENTITY
  2
AcArrayJigEntity
  3
ACAD_ARRAY
 90
      129
280
     1
281
     1
  0
CLASS
  1
ACDBASSOCNETWORK
  2
AcDbAssocNetwork
  3
ObjectDBX Classes
 90
     1025
280
     1
281
     0
  0
CLASS
  1
ACDBASSOCACTION
  2
AcDbAssocAction
  3
ObjectDBX Classes
 90
     1025
280
     1
281
     0
  0
CLASS
  1
ACDBASSOCARRAYACTIONBODY
  2
AcDbAssocArrayActionBody
  3
ObjectDBX Classes
 90
     1025
280
     1
281
     0
  0
CLASS
  1
ACDBASSOCVERTEXACTIONPARAM
  2
AcDbAssocVertexActionParam
  3
ObjectDBX Classes
 90
     1025
280
     1
281
     0
  0
CLASS
  1
ACDBASSOCDEPENDENCY
  2
AcDbAssocDependency
  3
ObjectDBX Classes
 90
     1025
280
     1
281
     0
  0
CLASS
  1
ACDBASSOCARRAYPOLARPARAMETERS
  2
AcDbAssocArrayPolarParameters
  3
ObjectDBX Classes
 90
     1025
280
     1
281
     0
  0
CLASS
  1
CELLSTYLEMAP
  2
AcDbCellStyleMap
  3
ObjectDBX Classes
 90
     1152
280
     0
281
     0
  0
ENDSEC
  0
SECTION
  2
TABLES
  0
TABLE
  2
VPORT
  5
8
330
0
100
AcDbSymbolTable
 70
     1
  0
VPORT
  5
1F4
330
8
100
AcDbSymbolTableRecord
100
AcDbViewportTableRecord
  2
*ACTIVE
 70
     0
 10
0.0
 20
0.0
 11
1.0
 21
1.0
 12
2112.626707912402
 22
1310.770035406089
 13
0.0
 23
0.0
 14
1.0
 24
1.0
 15
0.0
 25
0.0
 16
0.0
 26
0.0
 36
1.0
 17
0.0
 27
0.0
 37
0.0
 40
3971.431096616799
 41
2.038655462184874
 42
50.0
 43
0.0
 44
0.0
 50
0.0
 51
0.0
 71
    16
 72
   100
 73
     1
 74
     1
 75
     0
 76
     0
 77
     0
 78
     0
281
     0
 65
     1
110
0.0
120
0.0
130
0.0
111
1.0
121
0.0
131
0.0
112
0.0
122
1.0
132
0.0
 79
     0
146
0.0
1001
ACAD_NAV_VCDISPLAY
1070
     3
  0
ENDTAB
  0
TABLE
  2
LTYPE
  5
5
330
0
100
AcDbSymbolTable
 70
     2
  0
LTYPE
  5
14
330
5
100
AcDbSymbolTableRecord
100
AcDbLinetypeTableRecord
  2
BYBLOCK
 70
     0
  3

 72
    65
 73
     0
 40
0.0
  0
LTYPE
  5
15
330
5
100
AcDbSymbolTableRecord
100
AcDbLinetypeTableRecord
  2
BYLAYER
 70
     0
  3

 72
    65
 73
     0
 40
0.0
  0
LTYPE
  5
16
330
5
100
AcDbSymbolTableRecord
100
AcDbLinetypeTableRecord
  2
CONTINUOUS
 70
     0
  3
Solid line
 72
    65
 73
     0
 40
0.0
  0
LTYPE
  5
1F5
330
5
100
AcDbSymbolTableRecord
100
AcDbLinetypeTableRecord
  2
CENTER
 70
     0
  3
____ _ ____ _ ____ _ ____ _ ____ _ ____ _ ____
 72
    65
 73
     4
 40
0.6
 49
0.375
 74
     0
 49
-0.075
 74
     0
 49
0.075
 74
     0
 49
-0.075
 74
     0
  0
ENDTAB
  0
TABLE
  2
LAYER
  5
2
102
{ACAD_XDICTIONARY
360
3B58
102
}
330
0
100
AcDbSymbolTable
 70
     3
  0
LAYER
  5
10
102
{ACAD_XDICTIONARY
360
39E8
102
}
330
2
100
AcDbSymbolTableRecord
100
AcDbLayerTableRecord
  2
0
 70
     0
 62
     7
  6
CONTINUOUS
370
    -3
390
F
  0
LAYER
  5
203
102
{ACAD_XDICTIONARY
360
39FC
102
}
330
2
100
AcDbSymbolTableRecord
100
AcDbLayerTableRecord
  2
02__ASM_ALL_AXES
 70
     0
 62
     7
  6
CONTINUOUS
370
    -3
390
F
  0
LAYER
  5
21C
102
{ACAD_XDICTIONARY
360
3A2E
102
}
330
2
100
AcDbSymbolTableRecord
100
AcDbLayerTableRecord
  2
ALL_ASSEM_MEMBER
 70
     0
 62
     7
  6
CONTINUOUS
370
    -3
390
F
  0
ENDTAB
  0
TABLE
  2
STYLE
  5
3
330
0
100
AcDbSymbolTable
 70
     1
  0
STYLE
  5
11
330
3
100
AcDbSymbolTableRecord
100
AcDbTextStyleTableRecord
  2
STANDARD
 70
     0
 40
0.0
 41
0.6
 50
0.0
 71
     0
 42
0.2
  3
txt
  4

  0
ENDTAB
  0
TABLE
  2
VIEW
  5
6
330
0
100
AcDbSymbolTable
 70
     0
  0
ENDTAB
  0
TABLE
  2
UCS
  5
7
330
0
100
AcDbSymbolTable
 70
     0
  0
ENDTAB
  0
TABLE
  2
APPID
  5
9
330
0
100
AcDbSymbolTable
 70
     5
  0
APPID
  5
24B
330
9
100
AcDbSymbolTableRecord
100
AcDbRegAppTableRecord
  2
ACAD
 70
     0
  0
APPID
  5
3978
330
9
100
AcDbSymbolTableRecord
100
AcDbRegAppTableRecord
  2
ACAD_NAV_VCDISPLAY
 70
     0
  0
APPID
  5
3A96
330
9
100
AcDbSymbolTableRecord
100
AcDbRegAppTableRecord
  2
ACAD_EXEMPT_FROM_CAD_STANDARDS
 70
     0
  0
APPID
  5
3BA9
330
9
100
AcDbSymbolTableRecord
100
AcDbRegAppTableRecord
  2
ACAD_MLEADERVER
 70
     0
  0
APPID
  5
3BCC
330
9
100
AcDbSymbolTableRecord
100
AcDbRegAppTableRecord
  2
ACAD_DSTYLE_DIMRADIAL_EXTENSION
 70
     0
  0
ENDTAB
  0
TABLE
  2
DIMSTYLE
  5
A
330
0
100
AcDbSymbolTable
 70
     1
100
AcDbDimStyleTable
  0
DIMSTYLE
105
299
330
A
100
AcDbSymbolTableRecord
100
AcDbDimStyleTableRecord
  2
STANDARD
 70
     0
 41
3.5
 42
0.0
 44
1.0
 47
0.04
 48
0.04
 71
     1
 73
     0
 74
     0
 77
     1
 78
     8
140
2.5
147
0.625
178
     0
271
     1
272
     1
278
    44
284
     8
340
11
341
24E
342
24E
343
24E
344
24E
  0
ENDTAB
  0
TABLE
  2
BLOCK_RECORD
  5
1
330
0
100
AcDbSymbolTable
 70
     5
  0
BLOCK_RECORD
  5
24C
102
{ACAD_XDICTIONARY
360
3AA0
102
}
330
1
100
AcDbSymbolTableRecord
100
AcDbBlockTableRecord
  2
*Model_Space
340
3880
  0
BLOCK_RECORD
  5
24D
330
1
100
AcDbSymbolTableRecord
100
AcDbBlockTableRecord
  2
*Paper_Space
340
3881
  0
BLOCK_RECORD
  5
24E
330
1
100
AcDbSymbolTableRecord
100
AcDbBlockTableRecord
  2
_FILLED
340
0
  0
BLOCK_RECORD
  5
3B28
102
{ACAD_REACTORS
330
3B3A
102
}
330
1
100
AcDbSymbolTableRecord
100
AcDbBlockTableRecord
  2
*U1
340
0
102
{BLKREFS
331
3B3E
331
3B3F
331
3B40
331
3B41
331
3B42
331
3B43
331
3B44
331
3B45
331
3B46
331
3B47
331
3B48
331
3B49
102
}
  0
BLOCK_RECORD
  5
3B2B
102
{ACAD_REACTORS
330
3B39
102
}
102
{ACAD_XDICTIONARY
360
3BAC
102
}
330
1
100
AcDbSymbolTableRecord
100
AcDbBlockTableRecord
  2
*U2
340
0
102
{BLKREFS
331
3B2E
102
}
  0
ENDTAB
  0
ENDSEC
  0
SECTION
  2
BLOCKS
  0
BLOCK
  5
20
330
24C
100
AcDbEntity
  8
0
100
AcDbBlockBegin
  2
*Model_Space
 70
     0
 10
0.0
 20
0.0
 30
0.0
  3
*Model_Space
  1
*Model_Space
  0
ENDBLK
  5
21
330
24C
100
AcDbEntity
  8
0
100
AcDbBlockEnd
  0
BLOCK
  5
1C
330
24D
100
AcDbEntity
 67
     1
  8
0
100
AcDbBlockBegin
  2
*Paper_Space
 70
     0
 10
0.0
 20
0.0
 30
0.0
  3
*Paper_Space
  1
*Paper_Space
  0
ENDBLK
  5
1D
330
24D
100
AcDbEntity
 67
     1
  8
0
100
AcDbBlockEnd
  0
BLOCK
  5
403
330
24E
100
AcDbEntity
  8
0
100
AcDbBlockBegin
  2
_FILLED
 70
     0
 10
0.0
 20
0.0
 30
0.0
  3
_FILLED
  1
_FILLED
  0
SOLID
  5
404
330
24E
100
AcDbEntity
  8
0
  6
ByBlock
 62
     0
100
AcDbTrace
 10
0.0
 20
0.0
 30
0.0
 11
-1.0
 21
0.2142857143
 31
0.0
 12
-1.0
 22
-0.2142857143
 32
0.0
 13
-1.0
 23
-0.2142857143
 33
0.0
  0
ENDBLK
  5
405
330
24E
100
AcDbEntity
  8
0
  6
ByBlock
 62
     0
100
AcDbBlockEnd
  0
BLOCK
  5
3B29
330
3B28
100
AcDbEntity
  8
0
100
AcDbBlockBegin
  2
*U1
 70
     1
 10
0.0
 20
0.0
 30
0.0
  3
*U1
  1
*U64
  0
CIRCLE
  5
3B2F
330
3B28
100
AcDbEntity
  8
0
100
AcDbCircle
 10
0.0
 20
0.0
 30
0.0
 40
4.0
  0
ENDBLK
  5
3B2A
330
3B28
100
AcDbEntity
  8
0
100
AcDbBlockEnd
  0
BLOCK
  5
3B2C
330
3B2B
100
AcDbEntity
  8
0
100
AcDbBlockBegin
  2
*U2
 70
     1
 10
0.0
 20
0.0
 30
0.0
  3
*U2
  1
*U65
  0
INSERT
  5
3B3E
330
3B2B
100
AcDbEntity
  8
0
  6
ByBlock
 62
     0
370
    -2
380
     1
100
AcDbBlockReference
  2
*U1
 10
692.7077025391774
 20
2768.34722499926
 30
0.0
  0
INSERT
  5
3B3F
330
3B2B
100
AcDbEntity
  8
0
  6
ByBlock
 62
     0
370
    -2
380
     1
100
AcDbBlockReference
  2
*U1
 10
553.7385043530539
 20
2688.113321017608
 30
0.0
 41
0.9999999999999998
 42
0.9999999999999998
 43
0.9999999999999998
 50
29.99999999999998
  0
INSERT
  5
3B40
330
3B2B
100
AcDbEntity
  8
0
  6
ByBlock
 62
     0
370
    -2
380
     1
100
AcDbBlockReference
  2
*U1
 10
473.504600371142
 20
2549.144122831636
 30
0.0
 50
60.0
  0
INSERT
  5
3B41
330
3B2B
100
AcDbEntity
  8
0
  6
ByBlock
 62
     0
370
    -2
380
     1
100
AcDbBlockReference
  2
*U1
 10
473.5046003709913
 20
2388.676314868073
 30
0.0
 41
0.9999999999999996
 42
0.9999999999999996
 43
0.9999999999999996
 50
89.99999999999999
  0
INSERT
  5
3B42
330
3B2B
100
AcDbEntity
  8
0
  6
ByBlock
 62
     0
370
    -2
380
     1
100
AcDbBlockReference
  2
*U1
 10
553.7385043526422
 20
2249.707116681949
 30
0.0
 41
0.9999999999999996
 42
0.9999999999999996
 43
0.9999999999999996
 50
120.0
  0
INSERT
  5
3B43
330
3B2B
100
AcDbEntity
  8
0
  6
ByBlock
 62
     0
370
    -2
380
     1
100
AcDbBlockReference
  2
*U1
 10
692.707702538615
 20
2169.473212700037
 30
0.0
 41
0.9999999999999996
 42
0.9999999999999996
 43
0.9999999999999996
 50
149.9999999999999
  0
INSERT
  5
3B44
330
3B2B
100
AcDbEntity
  8
0
  6
ByBlock
 62
     0
370
    -2
380
     1
100
AcDbBlockReference
  2
*U1
 10
853.175510502178
 20
2169.473212699886
 30
0.0
 41
0.9999999999999994
 42
0.9999999999999994
 43
0.9999999999999994
 50
180.0
  0
INSERT
  5
3B45
330
3B2B
100
AcDbEntity
  8
0
  6
ByBlock
 62
     0
370
    -2
380
     1
100
AcDbBlockReference
  2
*U1
 10
992.1447086883015
 20
2249.707116681537
 30
0.0
 41
0.9999999999999994
 42
0.9999999999999994
 43
0.9999999999999994
 50
210.0
  0
INSERT
  5
3B46
330
3B2B
100
AcDbEntity
  8
0
  6
ByBlock
 62
     0
370
    -2
380
     1
100
AcDbBlockReference
  2
*U1
 10
1072.378612670213
 20
2388.67631486751
 30
0.0
 41
0.9999999999999992
 42
0.9999999999999992
 43
0.9999999999999992
 50
239.9999999999999
  0
INSERT
  5
3B47
330
3B2B
100
AcDbEntity
  8
0
  6
ByBlock
 62
     0
370
    -2
380
     1
100
AcDbBlockReference
  2
*U1
 10
1072.378612670364
 20
2549.144122831073
 30
0.0
 41
0.9999999999999992
 42
0.9999999999999992
 43
0.9999999999999992
 50
270.0
  0
INSERT
  5
3B48
330
3B2B
100
AcDbEntity
  8
0
  6
ByBlock
 62
     0
370
    -2
380
     1
100
AcDbBlockReference
  2
*U1
 10
992.1447086887132
 20
2688.113321017197
 30
0.0
 41
0.9999999999999992
 42
0.9999999999999992
 43
0.9999999999999992
 50
300.0
  0
INSERT
  5
3B49
330
3B2B
100
AcDbEntity
  8
0
  6
ByBlock
 62
     0
370
    -2
380
     1
100
AcDbBlockReference
  2
*U1
 10
853.1755105027405
 20
2768.347224999109
 30
0.0
 41
0.9999999999999992
 42
0.9999999999999992
 43
0.9999999999999992
 50
329.9999999999999
  0
ENDBLK
  5
3B2D
330
3B2B
100
AcDbEntity
  8
0
100
AcDbBlockEnd
  0
ENDSEC
  0
SECTION
  2
ENTITIES
  0
IMAGE
  5
487
330
24C
100
AcDbEntity
  8
0
 92
        8
310
0800000000000000
100
AcDbRasterImage
 90
        0
 10
39.5180584413
 20
167.8546308119
 30
0.0
 11
0.1693333333
 21
0.0
 31
0.0
 12
0.0
 22
0.1693333333
 32
0.0
 13
339.0
 23
346.0
340
0
 70
     9
280
     0
281
    50
282
    50
283
     0
360
0
 71
     1
 91
        2
 14
-0.5
 24
-0.5
 14
338.5
 24
345.5
  0
HATCH
  5
498
330
24C
100
AcDbEntity
  8
0
 62
     2
100
AcDbHatch
 10
0.0
 20
0.0
 30
0.0
210
0.0
220
0.0
230
1.0
  2
DEFAULT__17
 70
     0
 71
     0
 91
        2
 92
        1
 93
        4
 72
     1
 10
505.1637795287
 20
369.0877088107
 11
507.5637795287
 21
369.0877088107
 72
     1
 10
505.1637795287
 20
369.0877088107
 11
505.1637795287
 21
369.6877088107
 72
     1
 10
505.1637795287
 20
369.6877088107
 11
507.5637795287
 21
369.6877088107
 72
     1
 10
507.5637795287
 20
369.0877088107
 11
507.5637795287
 21
369.6877088107
 97
        0
 92
        1
 93
        4
 72
     1
 10
510.1637795287
 20
369.0877088107
 11
512.5637795287
 21
369.0877088107
 72
     1
 10
510.1637795287
 20
369.0877088107
 11
510.1637795287
 21
369.6877088107
 72
     1
 10
510.1637795287
 20
369.6877088107
 11
512.5637795287
 21
369.6877088107
 72
     1
 10
512.5637795287
 20
369.0877088107
 11
512.5637795287
 21
369.6877088107
 97
        0
 75
     0
 76
     0
 52
45.0
 41
11.88
 77
     0
 78
     1
 53
45.0
 43
0.0
 44
0.0
 45
-8.400428560499998
 46
8.400428560499998
 79
     0
 98
        1
 10
0.0
 20
0.0
  0
HATCH
  5
49A
330
24C
100
AcDbEntity
  8
0
 62
     2
100
AcDbHatch
 10
0.0
 20
0.0
 30
0.0
210
0.0
220
0.0
230
1.0
  2
DEFAULT__19
 70
     0
 71
     0
 91
        1
 92
        1
 93
        4
 72
     1
 10
427.6637795287
 20
301.0877088107
 11
422.2637795287
 21
301.0877088107
 72
     1
 10
422.2637795287
 20
301.0877088107
 11
422.2637795287
 21
301.3877088107
 72
     1
 10
427.6637795287
 20
301.3877088107
 11
422.2637795287
 21
301.3877088107
 72
     1
 10
427.6637795287
 20
301.0877088107
 11
427.6637795287
 21
301.3877088107
 97
        0
 75
     0
 76
     0
 52
45.0
 41
11.88
 77
     0
 78
     1
 53
45.0
 43
0.0
 44
0.0
 45
-8.400428560499998
 46
8.400428560499998
 79
     0
 98
        1
 10
0.0
 20
0.0
  0
HATCH
  5
4BA
330
24C
100
AcDbEntity
  8
0
 62
     2
100
AcDbHatch
 10
0.0
 20
0.0
 30
0.0
210
0.0
220
0.0
230
1.0
  2
DEFAULT__47
 70
     0
 71
     0
 91
        1
 92
        1
 93
        4
 72
     1
 10
294.1099151913
 20
301.0877088107
 11
288.7099151913
 21
301.0877088107
 72
     1
 10
288.7099151913
 20
301.3877088107
 11
288.7099151913
 21
301.0877088107
 72
     1
 10
294.1099151913
 20
301.3877088107
 11
288.7099151913
 21
301.3877088107
 72
     1
 10
294.1099151913
 20
301.3877088107
 11
294.1099151913
 21
301.0877088107
 97
        0
 75
     0
 76
     0
 52
45.0
 41
11.88
 77
     0
 78
     1
 53
45.0
 43
0.0
 44
0.0
 45
-8.400428560499998
 46
8.400428560499998
 79
     0
 98
        1
 10
0.0
 20
0.0
  0
HATCH
  5
4C3
330
24C
100
AcDbEntity
  8
0
 62
     2
100
AcDbHatch
 10
0.0
 20
0.0
 30
0.0
210
0.0
220
0.0
230
1.0
  2
DEFAULT__52
 70
     0
 71
     0
 91
        2
 92
        2
 72
     0
 73
     1
 93
       18
 10
782.9416065206779
 20
-69.30813366059692
 10
782.9416065206779
 20
-67.80813366059658
 10
782.9416065206779
 20
-67.80813366059658
 10
886.3577176176791
 20
-67.80813366059658
 10
886.3577176176791
 20
-67.80813366059658
 10
886.386236320679
 20
-67.93430971559656
 10
886.4147003496778
 20
-68.06027194259696
 10
886.4431097046777
 20
-68.18602034159665
 10
886.4714643856787
 20
-68.31155491259676
 10
886.4997643926786
 20
-68.43687565459686
 10
886.5280097256784
 20
-68.5619825685968
 10
886.5562003846783
 20
-68.68687565459663
 10
886.5843363696781
 20
-68.81155491259688
 10
886.6124176806779
 20
-68.93602034159653
 10
886.6404443176788
 20
-69.06027194259661
 10
886.6684162806787
 20
-69.18430971559656
 10
886.6963335696773
 20
-69.30813366059692
 10
886.6963335696773
 20
-69.30813366059692
 97
        0
 92
        2
 72
     0
 73
     1
 93
       30
 10
762.9416065206779
 20
-67.80813366059658
 10
762.9416065206779
 20
-69.30813366059692
 10
762.9416065206779
 20
-69.30813366059692
 10
760.5089994566783
 20
-69.30813366059692
 10
760.5089994566783
 20
-69.30813366059692
 10
760.525732202678
 20
-69.24364057259663
 10
760.5423374526783
 20
-69.17932079759635
 10
760.5588152056789
 20
-69.11517433359688
 10
760.5751654626779
 20
-69.05120118159698
 10
760.5913882236786
 20
-68.98740134259651
 10
760.6074834876785
 20
-68.92377481459685
 10
760.6234512566784
 20
-68.86032159859678
 10
760.6392915286785
 20
-68.79704169459681
 10
760.6550043046781
 20
-68.73393510359686
 10
760.670589583678
 20
-68.67100182359661
 10
760.6860473666775
 20
-68.60824185559648
 10
760.7013776536787
 20
-68.54565519959645
 10
760.7165804446784
 20
-68.48324185559659
 10
760.7316557396786
 20
-68.42100182359684
 10
760.7466035376781
 20
-68.35893510359665
 10
760.7614238396782
 20
-68.29704169459671
 10
760.7761166456789
 20
-68.23532159859678
 10
760.7906819546776
 20
-68.17377481459698
 10
760.8051197686787
 20
-68.11240134259674
 10
760.8194300856787
 20
-68.05120118159675
 10
760.8336129056779
 20
-67.99017433359677
 10
760.8476682306782
 20
-67.92932079759635
 10
760.8615960586775
 20
-67.86864057259675
 10
760.8753963906788
 20
-67.80813366059658
 10
760.8753963906788
 20
-67.80813366059658
 97
        0
 75
     0
 76
     0
 52
205.0
 41
1.521196214
 77
     0
 78
     1
 53
205.0
 43
-4205.001126079322
 44
-900.0065622115966
 45
0.6428853000000001
 46
-1.378671975
 79
     0
 98
        1
 10
-4205.001126079322
 20
-900.0065622115966
  0
HATCH
  5
4C4
330
24C
100
AcDbEntity
  8
0
 62
     2
100
AcDbHatch
 10
0.0
 20
0.0
 30
0.0
210
0.0
220
0.0
230
1.0
  2
DEFAULT__62
 70
     0
 71
     0
 91
        2
 92
        2
 72
     0
 73
     1
 93
       22
 10
775.4416065206779
 20
-67.80813366059658
 10
775.4416065206779
 20
-65.30813366059658
 10
775.4416065206779
 20
-65.30813366059658
 10
885.8116532166782
 20
-65.30813366059658
 10
885.8116532166782
 20
-65.30813366059658
 10
885.844595576678
 20
-65.46328379659667
 10
885.877673985678
 20
-65.61858058059681
 10
885.9108884466781
 20
-65.77402401359689
 10
885.9442389566783
 20
-65.92961409559689
 10
885.9777255176783
 20
-66.08535082559693
 10
886.0113481296771
 20
-66.24123420359706
 10
886.0451067916773
 20
-66.39726423159641
 10
886.0790015036782
 20
-66.5534409065965
 10
886.1130322666777
 20
-66.70976423159641
 10
886.1471990796776
 20
-66.86623420359706
 10
886.1815019426781
 20
-67.02285082559693
 10
886.2159408566783
 20
-67.17961409559689
 10
886.2505158216784
 20
-67.33652401359689
 10
886.2852268356785
 20
-67.49358058059681
 10
886.3200739006783
 20
-67.65078379659667
 10
886.3550570166781
 20
-67.80813366059658
 10
886.3550570166781
 20
-67.80813366059658
 97
        0
 92
        2
 72
     0
 73
     1
 93
       48
 10
770.4416065206779
 20
-65.30813366059658
 10
770.4416065206779
 20
-67.80813366059658
 10
770.4416065206779
 20
-67.80813366059658
 10
760.8749690116788
 20
-67.80813366059658
 10
760.8749690116788
 20
-67.80813366059658
 10
760.8894452846783
 20
-67.74481182059685
 10
760.9037895416776
 20
-67.68167525059664
 10
760.9180017836782
 20
-67.61872395059709
 10
760.9320820096781
 20
-67.5559579195966
 10
760.9460302206782
 20
-67.49337715959666
 10
760.9598464156779
 20
-67.43098166859636
 10
760.9735305956787
 20
-67.36877144759671
 10
760.9870827606784
 20
-67.30674649559671
 10
761.0005029096778
 20
-67.24490681459667
 10
761.0137910426779
 20
-67.18325240259685
 10
761.026947160678
 20
-67.12178326059654
 10
761.0399712636781
 20
-67.06049938759702
 10
761.0528633506779
 20
-66.99940078559689
 10
761.0656234216783
 20
-66.93848745259697
 10
761.0782514776787
 20
-66.87775938959658
 10
761.0907475186782
 20
-66.81721659659684
 10
761.1031115436793
 20
-66.75685907259674
 10
761.1153435536785
 20
-66.6966868195966
 10
761.1274435476782
 20
-66.63669983559669
 10
761.139411526678
 20
-66.57689812059698
 10
761.1512474896786
 20
-66.51728167659665
 10
761.162951437678
 20
-66.45785050159655
 10
761.1745233696781
 20
-66.39860459759643
 10
761.1859632866795
 20
-66.33954396159663
 10
761.1972711886785
 20
-66.28066859659678
 10
761.2084470746784
 20
-66.22197850159648
 10
761.2194909446789
 20
-66.16347367559695
 10
761.2304027996782
 20
-66.10515411959636
 10
761.2411826396778
 20
-66.04701983259656
 10
761.251830463678
 20
-65.98907081659672
 10
761.2623462726783
 20
-65.93130706959651
 10
761.272730065678
 20
-65.87372859259699
 10
761.2829818426775
 20
-65.8163353855964
 10
761.2931016056785
 20
-65.75912744859647
 10
761.3030893516788
 20
-65.70210478059676
 10
761.3129450836773
 20
-65.64526738259654
 10
761.3226687996776
 20
-65.58861525459702
 10
761.3322604996786
 20
-65.532148396597
 10
761.3417201846784
 20
-65.47586680759662
 10
761.3510478536791
 20
-65.4197704885969
 10
761.3602435076785
 20
-65.3638594395967
 10
761.3693071466782
 20
-65.30813366059658
 10
761.3693071466782
 20
-65.30813366059658
 97
        0
 75
     0
 76
     0
 52
135.0
 41
1.333614266
 77
     0
 78
     1
 53
135.0
 43
-4205.001126079322
 44
-900.0065622115966
 45
-0.943007691
 46
-0.943007691
 79
     0
 98
        1
 10
-4205.001126079322
 20
-900.0065622115966
  0
HATCH
  5
4C6
330
24C
100
AcDbEntity
  8
0
 62
     2
100
AcDbHatch
 10
0.0
 20
0.0
 30
0.0
210
0.0
220
0.0
230
1.0
  2
DEFAULT__78
 70
     0
 71
     0
 91
        3
 92
        1
 93
        4
 72
     1
 10
766.9416065206786
 20
-64.60813366059665
 11
766.9416065206786
 21
-63.10813366059673
 72
     1
 10
766.9416065206786
 20
-63.10813366059687
 11
769.691606520679
 21
-63.10813366059687
 72
     1
 10
769.6916065206785
 20
-63.10813366059687
 11
769.6916065206785
 21
-64.60813366059679
 72
     1
 10
769.6916065206785
 20
-64.60813366059665
 11
766.9416065206782
 21
-64.60813366059665
 97
        0
 92
        1
 93
        5
 72
     1
 10
776.1916065206783
 20
-64.60813366059665
 11
776.1916065206783
 21
-63.10813366059673
 72
     1
 10
776.1916065206783
 20
-63.10813366059687
 11
785.9416065206785
 21
-63.10813366059687
 72
     1
 10
785.9416065206785
 20
-63.10813366059687
 11
797.9416065206784
 21
-63.10813366059687
 72
     1
 10
797.9416065206779
 20
-63.10813366059687
 11
797.9416065206779
 21
-64.60813366059679
 72
     1
 10
797.9416065206779
 20
-64.60813366059665
 11
776.1916065206777
 21
-64.60813366059665
 97
        0
 92
        1
 93
        4
 72
     1
 10
797.9416065206779
 20
-55.10813366059676
 11
785.9416065206779
 21
-55.10813366059676
 72
     1
 10
785.9416065206785
 20
-55.10813366059676
 11
785.9416065206785
 21
-53.60813366059685
 72
     1
 10
785.9416065206785
 20
-53.60813366059642
 11
797.9416065206784
 21
-53.60813366059642
 72
     1
 10
797.9416065206779
 20
-53.60813366059642
 11
797.9416065206779
 21
-55.10813366059633
 97
        0
 75
     0
 76
     0
 52
45.0
 41
0.196502393
 77
     0
 78
     2
 53
45.0
 43
-4205.001126079322
 44
-900.0065622115966
 45
-0.138948175
 46
0.138948175
 79
     0
 53
45.0
 43
-4205.035863123321
 44
-899.9718251675968
 45
-0.138948175
 46
0.138948175
 79
     0
 98
        1
 10
-4205.001126079322
 20
-900.0065622115966
  0
HATCH
  5
4DA
330
24C
100
AcDbEntity
  8
0
 62
     2
100
AcDbHatch
 10
0.0
 20
0.0
 30
0.0
210
0.0
220
0.0
230
1.0
  2
DEFAULT__98
 70
     0
 71
     0
 91
        1
 92
        1
 93
        4
 72
     1
 10
138.0909568814
 20
85.1788551517
 11
141.6009568814
 21
85.1788551517
 72
     1
 10
138.0909568814
 20
85.37385515169998
 11
138.0909568814
 21
85.1788551517
 72
     1
 10
138.0909568814
 20
85.37385515169998
 11
141.6009568814
 21
85.37385515169998
 72
     1
 10
141.6009568814
 20
85.37385515169998
 11
141.6009568814
 21
85.1788551517
 97
        0
 75
     0
 76
     0
 52
45.0
 41
11.88
 77
     0
 78
     1
 53
45.0
 43
0.0
 44
0.0
 45
-8.400428560499998
 46
8.400428560499998
 79
     0
 98
        1
 10
0.0
 20
0.0
  0
LINE
  5
F03
330
24C
100
AcDbEntity
  8
0
  6
Continuous
 62
     7
100
AcDbLine
 10
857.6137104516778
 20
-39.35647296159641
 30
0.0
 11
850.4236731426789
 21
-41.32379734459687
 31
0.0
  0
LINE
  5
F04
330
24C
100
AcDbEntity
  8
0
  6
Continuous
 62
     7
100
AcDbLine
 10
843.4452926466788
 20
-43.54129006159678
 30
0.0
 11
827.5818053936786
 21
-46.52729051459641
 31
0.0
  0
LINE
  5
F05
330
24C
100
AcDbEntity
  8
0
  6
Continuous
 62
     7
100
AcDbLine
 10
865.1039280856781
 20
-38.60641110159645
 30
0.0
 11
857.6137104516778
 21
-39.35647296159641
 31
0.0
  0
LINE
  5
F06
330
24C
100
AcDbEntity
  8
0
  6
Continuous
 62
     7
100
AcDbLine
 10
827.5818053936786
 20
-46.52729051459641
 30
0.0
 11
810.9634935076787
 21
-47.06973624859654
 31
0.0
  0
LWPOLYLINE
  5
F07
330
24C
100
AcDbEntity
  8
ALL_ASSEM_MEMBER
  6
Continuous
 62
     7
100
AcDbPolyline
 90
       10
 70
     0
 43
0.0
 10
794.1405057776781
 20
-63.12500173659668
 10
802.9577061886785
 20
-62.84709050259675
 10
812.2380909266777
 20
-62.18890530259682
 10
822.0100327096789
 20
-61.11756353359692
 10
832.2705301406786
 20
-59.60508605159657
 10
842.9603930016783
 20
-57.64019709259696
 10
853.9390335496792
 20
-55.24461558159669
 10
864.9726940556782
 20
-52.48830313259657
 10
875.8169287046776
 20
-49.47473100959666
 10
881.1532400446782
 20
-47.86378768459667
  0
LWPOLYLINE
  5
F08
330
24C
100
AcDbEntity
  8
ALL_ASSEM_MEMBER
  6
Continuous
 62
     7
100
AcDbPolyline
 90
        3
 70
     0
 43
0.0
 10
802.657369084679
 20
-54.9848268235969
 10
794.1023976146785
 20
-55.24075796859688
 10
786.0573038456783
 20
-55.15982994059652
  0
LINE
  5
F09
330
24C
100
AcDbEntity
  8
0
  6
Continuous
 62
     7
100
AcDbLine
 10
792.1773834436789
 20
-46.55704942659679
 30
0.0
 11
780.1098836166778
 21
-46.57900598559661
 31
0.0
  0
LINE
  5
F0A
330
24C
100
AcDbEntity
  8
ALL_ASSEM_MEMBER
  6
Continuous
 62
     7
100
AcDbLine
 10
770.4416065206779
 20
-83.10813366059688
 30
0.0
 11
775.4416065206779
 21
-83.10813366059688
 31
0.0
  0
LINE
  5
F0B
330
24C
100
AcDbEntity
  8
ALL_ASSEM_MEMBER
  6
Continuous
 62
     7
100
AcDbLine
 10
769.9416065206783
 20
-82.60813366059676
 30
0.0
 11
775.9416065206785
 21
-82.60813366059676
 31
0.0
  0
LINE
  5
F0D
330
24C
100
AcDbEntity
  8
ALL_ASSEM_MEMBER
  6
Continuous
 62
     7
100
AcDbLine
 10
768.1681038286793
 20
-73.50813366059651
 30
0.0
 11
777.7151092126787
 21
-73.50813366059651
 31
0.0
  0
LINE
  5
F0E
330
24C
100
AcDbEntity
  8
ALL_ASSEM_MEMBER
  6
Continuous
 62
     7
100
AcDbLine
 10
886.671313633678
 20
-69.30813366059692
 30
0.0
 11
778.5151092126779
 21
-69.30813366059692
 31
0.0
  0
LINE
  5
F0F
330
24C
100
AcDbEntity
  8
ALL_ASSEM_MEMBER
  6
Continuous
 62
     7
100
AcDbLine
 10
767.3681038286777
 20
-69.30813366059692
 30
0.0
 11
760.484237505678
 21
-69.30813366059692
 31
0.0
  0
LINE
  5
F10
330
24C
100
AcDbEntity
  8
ALL_ASSEM_MEMBER
  6
Continuous
 62
     7
100
AcDbLine
 10
767.4416065206782
 20
-68.50813366059651
 30
0.0
 11
778.4416065206785
 21
-68.50813366059651
 31
0.0
  0
LINE
  5
F11
330
24C
100
AcDbEntity
  8
ALL_ASSEM_MEMBER
  6
Continuous
 62
     7
100
AcDbLine
 10
760.8022531156774
 20
-67.80813366059658
 30
0.0
 11
886.3474489856782
 21
-67.80813366059658
 31
0.0
  0
LINE
  5
F12
330
24C
100
AcDbEntity
  8
ALL_ASSEM_MEMBER
  6
Continuous
 62
     7
100
AcDbLine
 10
761.3322791326784
 20
-65.30813366059658
 30
0.0
 11
885.8076745716784
 21
-65.30813366059658
 31
0.0
  0
LINE
  5
F13
330
24C
100
AcDbEntity
  8
ALL_ASSEM_MEMBER
  6
Continuous
 62
     7
100
AcDbLine
 10
766.9416065206786
 20
-64.60813366059665
 30
0.0
 11
797.9416065206779
 21
-64.60813366059665
 31
0.0
  0
LINE
  5
F14
330
24C
100
AcDbEntity
  8
ALL_ASSEM_MEMBER
  6
Continuous
 62
     7
100
AcDbLine
 10
766.9416065206786
 20
-63.10813366059687
 30
0.0
 11
785.9416065206785
 21
-63.10813366059687
 31
0.0
  0
LINE
  5
F15
330
24C
100
AcDbEntity
  8
ALL_ASSEM_MEMBER
  6
Continuous
 62
     7
100
AcDbLine
 10
794.6756738246786
 20
-63.10813366059687
 30
0.0
 11
797.9416065206779
 21
-63.10813366059687
 31
0.0
  0
LINE
  5
F16
330
24C
100
AcDbEntity
  8
ALL_ASSEM_MEMBER
  6
Continuous
 62
     9
100
AcDbLine
 10
761.8069399926782
 20
-61.50813366059662
 30
0.0
 11
767.1681038286778
 21
-61.50813366059662
 31
0.0
  0
LINE
  5
F17
330
24C
100
AcDbEntity
  8
ALL_ASSEM_MEMBER
  6
Continuous
 62
     9
100
AcDbLine
 10
778.7151092126777
 20
-61.50813366059662
 30
0.0
 11
785.8635592596779
 21
-61.50813366059662
 31
0.0
  0
LINE
  5
F18
330
24C
100
AcDbEntity
  8
ALL_ASSEM_MEMBER
  6
Continuous
 62
     9
100
AcDbLine
 10
818.4475574566791
 20
-61.50813366059662
 30
0.0
 11
885.0062750936783
 21
-61.50813366059662
 31
0.0
  0
LINE
  5
F19
330
24C
100
AcDbEntity
  8
ALL_ASSEM_MEMBER
  6
Continuous
 62
     7
100
AcDbLine
 10
777.7151092126787
 20
-59.10813366059653
 30
0.0
 11
768.1681038286793
 21
-59.10813366059653
 31
0.0
  0
LINE
  5
F1A
330
24C
100
AcDbEntity
  8
ALL_ASSEM_MEMBER
  6
Continuous
 62
     7
100
AcDbLine
 10
785.9416065206785
 20
-55.10813366059676
 30
0.0
 11
797.9416065206779
 21
-55.10813366059676
 31
0.0
  0
LINE
  5
F1B
330
24C
100
AcDbEntity
  8
ALL_ASSEM_MEMBER
  6
Continuous
 62
     7
100
AcDbLine
 10
785.9416065206785
 20
-53.60813366059642
 30
0.0
 11
797.9416065206779
 21
-53.60813366059642
 31
0.0
  0
LINE
  5
F1C
330
24C
100
AcDbEntity
  8
ALL_ASSEM_MEMBER
  6
Continuous
 62
     7
100
AcDbLine
 10
785.8259092416774
 20
-63.05643738159642
 30
0.0
 11
794.1405057776781
 21
-63.12500173659668
 31
0.0
  0
LINE
  5
F1D
330
24C
100
AcDbEntity
  8
0
  6
Continuous
 62
     7
100
AcDbLine
 10
810.9634935076787
 20
-47.06973624859654
 30
0.0
 11
792.1773834436789
 21
-46.55704942659679
 31
0.0
  0
LINE
  5
F47
330
24C
100
AcDbEntity
  8
0
  6
Continuous
 62
     7
100
AcDbLine
 10
780.1098836166778
 20
-46.57900598559661
 30
0.0
 11
769.5211238796782
 21
-48.53215662059665
 31
0.0
  0
LINE
  5
F56
330
24C
100
AcDbEntity
  8
0
  6
Continuous
 62
     7
100
AcDbLine
 10
869.0347002116785
 20
-38.99132634959654
 30
0.0
 11
865.1039280856781
 21
-38.60641110159645
 31
0.0
  0
LINE
  5
F57
330
24C
100
AcDbEntity
  8
0
  6
Continuous
 62
     7
100
AcDbLine
 10
872.7844671246788
 20
-39.98465105459684
 30
0.0
 11
869.0347002116785
 21
-38.99132634959654
 31
0.0
  0
LWPOLYLINE
  5
F58
330
24C
100
AcDbEntity
  8
ALL_ASSEM_MEMBER
  6
Continuous
 62
     7
100
AcDbPolyline
 90
       36
 70
     0
 43
0.0
 10
770.0548551746778
 20
-72.50813366059685
 10
770.2414173726784
 20
-72.59911741759663
 10
770.4231166226778
 20
-72.68317304859647
 10
770.6005697766778
 20
-72.76072582659663
 10
770.7743256776776
 20
-72.83213121359675
 10
770.944879696678
 20
-72.89768631459663
 10
771.1126713816788
 20
-72.95763374659668
 10
771.2780958016783
 20
-73.0121707335969
 10
771.4415075516781
 20
-73.0614546585964
 10
771.6032280936787
 20
-73.10560922559671
 10
771.7635336626785
 20
-73.1447252515967
 10
771.9226722576782
 20
-73.17886974659655
 10
772.0808653286776
 20
-73.20808972259681
 10
772.2383069886786
 20
-73.23241559759661
 10
772.3951662346776
 20
-73.25186528559652
 10
772.5515929826788
 20
-73.26644836359672
 10
772.7077231356787
 20
-73.27616919759646
 10
772.8636801776787
 20
-73.28102913759676
 10
773.0195799226778
 20
-73.28102840359702
 10
773.1755364386783
 20
-73.27616702259672
 10
773.3316655326786
 20
-73.26644482759673
 10
773.4880907016777
 20
-73.25186051659682
 10
773.6449476426782
 20
-73.23240980459684
 10
773.8023864086784
 20
-73.20808315759689
 10
773.9605759666773
 20
-73.1788627205965
 10
774.1197105766782
 20
-73.14471809659676
 10
774.2800113826793
 20
-73.1056023905968
 10
774.441726291679
 20
-73.06144868059685
 10
774.6051356346783
 20
-73.01216492559672
 10
774.7705564326787
 20
-72.95762867159692
 10
774.9383434376779
 20
-72.89768257159676
 10
775.1088927606788
 20
-72.83212906759684
 10
775.2826462076787
 20
-72.76072457859652
 10
775.4600974846785
 20
-72.683172568597
 10
775.6417958556785
 20
-72.59911732959677
 10
775.8283578666778
 20
-72.50813366059685
  0
LWPOLYLINE
  5
F59
330
24C
100
AcDbEntity
  8
ALL_ASSEM_MEMBER
  6
Continuous
 62
     7
100
AcDbPolyline
 90
       36
 70
     0
 43
0.0
 10
775.8283578666778
 20
-60.10813366059676
 10
775.6417957846788
 20
-60.01714995759653
 10
775.460096651678
 20
-59.9330943775966
 10
775.2826436246785
 20
-59.85554164659686
 10
775.108887790678
 20
-59.78413627659688
 10
774.9383338716787
 20
-59.71858120159663
 10
774.7705421906784
 20
-59.65863375659648
 10
774.6051177176782
 20
-59.60409673859669
 10
774.4417059366782
 20
-59.55481279059665
 10
774.2799852956791
 20
-59.51065818459665
 10
774.119679682678
 20
-59.47154213959675
 10
773.9605410486781
 20
-59.43739762659686
 10
773.8023479426779
 20
-59.40817763659663
 10
773.6449062366792
 20
-59.38385174859672
 10
773.4880469426782
 20
-59.36440205059693
 10
773.3316201486782
 20
-59.3498189635967
 10
773.1754899466791
 20
-59.34009812559691
 10
773.0195328576788
 20
-59.33523818259641
 10
772.8636330656781
 20
-59.33523891759659
 10
772.7076765046781
 20
-59.34010030259696
 10
772.5515473666787
 20
-59.34982250459666
 10
772.3951221556781
 20
-59.36440682459658
 10
772.2382651716789
 20
-59.38385754859678
 10
772.0808263676777
 20
-59.40818420759637
 10
771.9226367706785
 20
-59.43740466059648
 10
771.7635021296787
 20
-59.47154930159695
 10
771.6032012926786
 20
-59.5106650245965
 10
771.4414863676786
 20
-59.55481874959684
 10
771.2780770066781
 20
-59.60410252159658
 10
771.1126561986788
 20
-59.65863878959635
 10
770.9448691756786
 20
-59.71858490859699
 10
770.7743198776775
 20
-59.78413841359679
 10
770.6005664976778
 20
-59.85554288559638
 10
770.4231153296786
 20
-59.93309485459644
 10
770.2414170716788
 20
-60.01715004559696
 10
770.0548551746778
 20
-60.10813366059676
  0
LINE
  5
FCC
330
24C
100
AcDbEntity
  8
0
  6
Continuous
 62
     7
100
AcDbLine
 10
876.0703257756786
 20
-41.62217046659702
 30
0.0
 11
872.7844671246788
 21
-39.98465105459684
 31
0.0
  0
LWPOLYLINE
  5
FCE
330
24C
100
AcDbEntity
  8
ALL_ASSEM_MEMBER
  6
Continuous
 62
     7
100
AcDbPolyline
 90
       36
 70
     0
 43
0.0
 10
767.1681038286778
 20
-72.50813366059685
 10
767.2613849276781
 20
-72.59911741759663
 10
767.3522345526789
 20
-72.68317304859647
 10
767.4409611296772
 20
-72.76072582659663
 10
767.527839080678
 20
-72.83213121359675
 10
767.613116089678
 20
-72.89768631459663
 10
767.6970119316782
 20
-72.95763374659668
 10
767.7797241426783
 20
-73.0121707335969
 10
767.8614300166778
 20
-73.0614546585964
 10
767.9422902886785
 20
-73.10560922559671
 10
768.0224430726782
 20
-73.1447252515967
 10
768.1020123696778
 20
-73.17886974659655
 10
768.1811089056777
 20
-73.20808972259681
 10
768.2598297356783
 20
-73.23241559759661
 10
768.3382593586776
 20
-73.25186528559652
 10
768.4164727326782
 20
-73.26644836359672
 10
768.494537808678
 20
-73.27616919759646
 10
768.5725163296781
 20
-73.28102913759676
 10
768.6504662026784
 20
-73.28102840359702
 10
768.7284444606786
 20
-73.27616702259672
 10
768.8065090076788
 20
-73.26644482759673
 10
768.8847215916776
 20
-73.25186051659682
 10
768.9631500626781
 20
-73.23240980459684
 10
769.0418694456782
 20
-73.20808315759689
 10
769.1209642246776
 20
-73.1788627205965
 10
769.200531529678
 20
-73.14471809659676
 10
769.2806819326786
 20
-73.1056023905968
 10
769.3615393876775
 20
-73.06144868059685
 10
769.4432440586781
 20
-73.01216492559672
 10
769.5259544576783
 20
-72.95762867159692
 10
769.6098479606787
 20
-72.89768257159676
 10
769.6951226216783
 20
-72.83212906759684
 10
769.7819993456785
 20
-72.76072457859652
 10
769.8707249836782
 20
-72.683172568597
 10
769.9615741696784
 20
-72.59911732959677
 10
770.0548551746778
 20
-72.50813366059685
  0
LINE
  5
FD0
330
24C
100
AcDbEntity
  8
ALL_ASSEM_MEMBER
  6
Continuous
 62
     7
100
AcDbLine
 10
769.9416065206783
 20
-82.60813366059676
 30
0.0
 11
770.4416065206779
 21
-83.10813366059688
 31
0.0
  0
LWPOLYLINE
  5
1080
330
24C
100
AcDbEntity
  8
ALL_ASSEM_MEMBER
  6
Continuous
 62
     7
100
AcDbPolyline
 90
       36
 70
     0
 43
0.0
 10
775.8283578666778
 20
-72.50813366059685
 10
775.921638965678
 20
-72.59911741759663
 10
776.0124885906777
 20
-72.68317304859647
 10
776.1012151676784
 20
-72.76072582659663
 10
776.1880931186778
 20
-72.83213121359675
 10
776.2733701276779
 20
-72.89768631459663
 10
776.3572659696781
 20
-72.95763374659668
 10
776.4399781806782
 20
-73.0121707335969
 10
776.5216840546777
 20
-73.0614546585964
 10
776.602544325678
 20
-73.10560922559671
 10
776.6826971106781
 20
-73.1447252515967
 10
776.7622664076789
 20
-73.17886974659655
 10
776.8413629436787
 20
-73.20808972259681
 10
776.9200837736782
 20
-73.23241559759661
 10
776.9985133966788
 20
-73.25186528559652
 10
777.0767267706783
 20
-73.26644836359672
 10
777.154791846678
 20
-73.27616919759646
 10
777.2327703676792
 20
-73.28102913759676
 10
777.3107202406773
 20
-73.28102840359702
 10
777.3886984986774
 20
-73.27616702259672
 10
777.4667630456788
 20
-73.26644482759673
 10
777.5449756296775
 20
-73.25186051659682
 10
777.6234041006792
 20
-73.23240980459684
 10
777.7021234836781
 20
-73.20808315759689
 10
777.7812182626775
 20
-73.1788627205965
 10
777.860785567679
 20
-73.14471809659676
 10
777.9409359706785
 20
-73.1056023905968
 10
778.0217934246782
 20
-73.06144868059685
 10
778.1034980966792
 20
-73.01216492559672
 10
778.1862084956783
 20
-72.95762867159692
 10
778.2701019976782
 20
-72.89768257159676
 10
778.3553766596782
 20
-72.83212906759684
 10
778.4422533836773
 20
-72.76072457859652
 10
778.5309790216793
 20
-72.683172568597
 10
778.6218282076784
 20
-72.59911732959677
 10
778.7151092126777
 20
-72.50813366059685
  0
LWPOLYLINE
  5
1081
330
24C
100
AcDbEntity
  8
ALL_ASSEM_MEMBER
  6
Continuous
 62
     7
100
AcDbPolyline
 90
       36
 70
     0
 43
0.0
 10
770.0548551746778
 20
-60.10813366059676
 10
769.9615741336783
 20
-60.01714995759653
 10
769.8707245676787
 20
-59.9330943775966
 10
769.7819980536786
 20
-59.85554164659686
 10
769.6951201366784
 20
-59.78413627659688
 10
769.609843177679
 20
-59.71858120159663
 10
769.5259473366782
 20
-59.65863375659648
 10
769.4432350996789
 20
-59.60409673859669
 10
769.361529209678
 20
-59.55481279059665
 10
769.2806688896787
 20
-59.51065818459665
 10
769.200516082678
 20
-59.47154213959675
 10
769.1209467656785
 20
-59.43739762659686
 10
769.0418502126779
 20
-59.40817763659663
 10
768.9631293596785
 20
-59.38385174859672
 10
768.8846997126774
 20
-59.36440205059693
 10
768.806486315678
 20
-59.3498189635967
 10
768.7284212146785
 20
-59.34009812559691
 10
768.6504426706784
 20
-59.33523818259641
 10
768.5724927746782
 20
-59.33523891759659
 10
768.494514493679
 20
-59.34010030259696
 10
768.4164499246783
 20
-59.34982250459666
 10
768.3382373196782
 20
-59.36440682459658
 10
768.2598088276786
 20
-59.38385754859678
 10
768.1810894256791
 20
-59.40818420759637
 10
768.1019946266787
 20
-59.43740466059648
 10
768.0224273066785
 20
-59.47154930159695
 10
767.9422768876788
 20
-59.5106650245965
 10
767.8614194256779
 20
-59.55481874959684
 10
767.7797147446786
 20
-59.60410252159658
 10
767.6970043406773
 20
-59.65863878959635
 10
767.6131108286786
 20
-59.71858490859699
 10
767.5278361806779
 20
-59.78413841359679
 10
767.4409594896787
 20
-59.85554288559638
 10
767.3522339066785
 20
-59.93309485459644
 10
767.2613847776774
 20
-60.01715004559696
 10
767.1681038286778
 20
-60.10813366059676
  0
LWPOLYLINE
  5
1082
330
24C
100
AcDbEntity
  8
ALL_ASSEM_MEMBER
  6
Continuous
 62
     7
100
AcDbPolyline
 90
       36
 70
     0
 43
0.0
 10
778.7151092126777
 20
-60.10813366059676
 10
778.6218281716783
 20
-60.01714995759653
 10
778.5309786056786
 20
-59.9330943775966
 10
778.4422520916787
 20
-59.85554164659686
 10
778.3553741746784
 20
-59.78413627659688
 10
778.2700972156779
 20
-59.71858120159663
 10
778.1862013746781
 20
-59.65863375659648
 10
778.1034891376789
 20
-59.60409673859669
 10
778.021783247678
 20
-59.55481279059665
 10
777.9409229276775
 20
-59.51065818459665
 10
777.8607701206778
 20
-59.47154213959675
 10
777.7812008036785
 20
-59.43739762659686
 10
777.7021042506789
 20
-59.40817763659663
 10
777.6233833976784
 20
-59.38385174859672
 10
777.5449537506785
 20
-59.36440205059693
 10
777.4667403536791
 20
-59.3498189635967
 10
777.3886752526784
 20
-59.34009812559691
 10
777.3106967086773
 20
-59.33523818259641
 10
777.2327468116789
 20
-59.33523891759659
 10
777.154768531679
 20
-59.34010030259696
 10
777.0767039626782
 20
-59.34982250459666
 10
776.9984913576782
 20
-59.36440682459658
 10
776.9200628656785
 20
-59.38385754859678
 10
776.8413434636791
 20
-59.40818420759637
 10
776.7622486646787
 20
-59.43740466059648
 10
776.6826813436791
 20
-59.47154930159695
 10
776.6025309256788
 20
-59.5106650245965
 10
776.5216734626774
 20
-59.55481874959684
 10
776.4399687826785
 20
-59.60410252159658
 10
776.3572583786784
 20
-59.65863878959635
 10
776.2733648666785
 20
-59.71858490859699
 10
776.1880902186789
 20
-59.78413841359679
 10
776.1012135276787
 20
-59.85554288559638
 10
776.012487943678
 20
-59.93309485459644
 10
775.9216388156773
 20
-60.01715004559696
 10
775.8283578666778
 20
-60.10813366059676
  0
LINE
  5
1083
330
24C
100
AcDbEntity
  8
ALL_ASSEM_MEMBER
  6
Continuous
 62
     7
100
AcDbLine
 10
768.1681038286793
 20
-73.50813366059651
 30
0.0
 11
767.1681038286778
 21
-72.50813366059685
 31
0.0
  0
LINE
  5
1084
330
24C
100
AcDbEntity
  8
ALL_ASSEM_MEMBER
  6
Continuous
 62
     7
100
AcDbLine
 10
778.7151092126777
 20
-69.50813366059674
 30
0.0
 11
777.7151092126787
 21
-68.50813366059651
 31
0.0
  0
LINE
  5
1085
330
24C
100
AcDbEntity
  8
ALL_ASSEM_MEMBER
  6
Continuous
 62
     7
100
AcDbLine
 10
777.7151092126787
 20
-59.10813366059653
 30
0.0
 11
778.7151092126777
 21
-60.10813366059676
 31
0.0
  0
LINE
  5
1198
330
24C
100
AcDbEntity
  8
0
  6
Continuous
 62
     7
100
AcDbLine
 10
880.9986444386783
 20
-47.40993370559647
 30
0.0
 11
876.0703257756786
 21
-41.62217046659702
 31
0.0
  0
LINE
  5
1266
330
24C
100
AcDbEntity
  8
0
  6
Continuous
 62
     7
100
AcDbLine
 10
758.4281108816782
 20
-92.95766985459704
 30
0.0
 11
758.6955805326779
 21
-94.30813366059694
 31
0.0
  0
LINE
  5
12F9
330
24C
100
AcDbEntity
  8
0
  6
Continuous
 62
     7
100
AcDbLine
 10
757.6334062566782
 20
-86.23697854059697
 30
0.0
 11
758.4281108816782
 21
-92.95766985459704
 31
0.0
  0
LWPOLYLINE
  5
12FA
330
24C
100
AcDbEntity
  8
ALL_ASSEM_MEMBER
  6
Continuous
 62
     7
100
AcDbPolyline
 90
        3
 70
     0
 43
0.0
 10
785.8259104206782
 20
-63.05639715459688
 10
785.8255416946776
 20
-63.0498637975968
 10
785.825928426678
 20
-62.99961655059701
  0
LINE
  5
1313
330
24C
100
AcDbEntity
  8
ALL_ASSEM_MEMBER
  6
Continuous
 62
     7
100
AcDbLine
 10
762.9416065206779
 20
-69.30813366059692
 30
0.0
 11
762.9416065206779
 21
-67.80813366059658
 31
0.0
  0
LINE
  5
1314
330
24C
100
AcDbEntity
  8
ALL_ASSEM_MEMBER
  6
Continuous
 62
     7
100
AcDbLine
 10
766.9416065206786
 20
-64.60813366059665
 30
0.0
 11
766.9416065206786
 21
-63.10813366059687
 31
0.0
  0
LINE
  5
1315
330
24C
100
AcDbEntity
  8
ALL_ASSEM_MEMBER
  6
Continuous
 62
     7
100
AcDbLine
 10
767.1681038286778
 20
-69.50813366059674
 30
0.0
 11
767.1681038286778
 21
-72.50813366059685
 31
0.0
  0
LINE
  5
1316
330
24C
100
AcDbEntity
  8
ALL_ASSEM_MEMBER
  6
Continuous
 62
     7
100
AcDbLine
 10
767.1681038286778
 20
-63.10813366059687
 30
0.0
 11
767.1681038286778
 21
-60.10813366059676
 31
0.0
  0
LINE
  5
1317
330
24C
100
AcDbEntity
  8
ALL_ASSEM_MEMBER
  6
Continuous
 62
     7
100
AcDbLine
 10
767.4416065206782
 20
-67.80813366059658
 30
0.0
 11
767.4416065206782
 21
-68.50813366059651
 31
0.0
  0
LINE
  5
1318
330
24C
100
AcDbEntity
  8
ALL_ASSEM_MEMBER
  6
Continuous
 62
     7
100
AcDbLine
 10
767.4416065206782
 20
-65.30813366059658
 30
0.0
 11
767.4416065206782
 21
-64.60813366059665
 31
0.0
  0
LINE
  5
1319
330
24C
100
AcDbEntity
  8
ALL_ASSEM_MEMBER
  6
Continuous
 62
     7
100
AcDbLine
 10
769.6916065206785
 20
-64.60813366059665
 30
0.0
 11
769.6916065206785
 21
-63.10813366059687
 31
0.0
  0
LINE
  5
131A
330
24C
100
AcDbEntity
  8
ALL_ASSEM_MEMBER
  6
Continuous
 62
     7
100
AcDbLine
 10
769.9416065206783
 20
-63.10813366059687
 30
0.0
 11
769.9416065206783
 21
-64.60813366059665
 31
0.0
  0
LINE
  5
131B
330
24C
100
AcDbEntity
  8
ALL_ASSEM_MEMBER
  6
Continuous
 62
     7
100
AcDbLine
 10
769.9416065206783
 20
-65.30813366059658
 30
0.0
 11
769.9416065206783
 21
-67.80813366059658
 31
0.0
  0
LINE
  5
131C
330
24C
100
AcDbEntity
  8
ALL_ASSEM_MEMBER
  6
Continuous
 62
     7
100
AcDbLine
 10
769.9416065206783
 20
-73.50813366059651
 30
0.0
 11
769.9416065206783
 21
-82.60813366059676
 31
0.0
  0
LINE
  5
131D
330
24C
100
AcDbEntity
  8
ALL_ASSEM_MEMBER
  6
Continuous
 62
     7
100
AcDbLine
 10
770.0548551746778
 20
-69.50813366059674
 30
0.0
 11
770.0548551746778
 21
-72.50813366059685
 31
0.0
  0
LINE
  5
131E
330
24C
100
AcDbEntity
  8
ALL_ASSEM_MEMBER
  6
Continuous
 62
     7
100
AcDbLine
 10
770.0548551746778
 20
-63.10813366059687
 30
0.0
 11
770.0548551746778
 21
-60.10813366059676
 31
0.0
  0
LINE
  5
133B
330
24C
100
AcDbEntity
  8
ALL_ASSEM_MEMBER
  6
Continuous
 62
     7
100
AcDbLine
 10
775.8283578666778
 20
-69.50813366059674
 30
0.0
 11
775.8283578666778
 21
-72.50813366059685
 31
0.0
  0
LINE
  5
133C
330
24C
100
AcDbEntity
  8
ALL_ASSEM_MEMBER
  6
Continuous
 62
     7
100
AcDbLine
 10
775.8283578666778
 20
-63.10813366059687
 30
0.0
 11
775.8283578666778
 21
-60.10813366059676
 31
0.0
  0
LINE
  5
133D
330
24C
100
AcDbEntity
  8
ALL_ASSEM_MEMBER
  6
Continuous
 62
     7
100
AcDbLine
 10
775.9416065206785
 20
-63.10813366059687
 30
0.0
 11
775.9416065206785
 21
-64.60813366059665
 31
0.0
  0
LINE
  5
133E
330
24C
100
AcDbEntity
  8
ALL_ASSEM_MEMBER
  6
Continuous
 62
     7
100
AcDbLine
 10
775.9416065206785
 20
-65.30813366059658
 30
0.0
 11
775.9416065206785
 21
-67.80813366059658
 31
0.0
  0
LINE
  5
133F
330
24C
100
AcDbEntity
  8
ALL_ASSEM_MEMBER
  6
Continuous
 62
     7
100
AcDbLine
 10
775.9416065206785
 20
-73.50813366059651
 30
0.0
 11
775.9416065206785
 21
-82.60813366059676
 31
0.0
  0
LINE
  5
1340
330
24C
100
AcDbEntity
  8
ALL_ASSEM_MEMBER
  6
Continuous
 62
     7
100
AcDbLine
 10
776.1916065206783
 20
-64.60813366059665
 30
0.0
 11
776.1916065206783
 21
-63.10813366059687
 31
0.0
  0
LINE
  5
1341
330
24C
100
AcDbEntity
  8
ALL_ASSEM_MEMBER
  6
Continuous
 62
     7
100
AcDbLine
 10
778.4416065206785
 20
-67.80813366059658
 30
0.0
 11
778.4416065206785
 21
-68.50813366059651
 31
0.0
  0
LINE
  5
1342
330
24C
100
AcDbEntity
  8
ALL_ASSEM_MEMBER
  6
Continuous
 62
     7
100
AcDbLine
 10
778.4416065206785
 20
-65.30813366059658
 30
0.0
 11
778.4416065206785
 21
-64.60813366059665
 31
0.0
  0
LINE
  5
1343
330
24C
100
AcDbEntity
  8
ALL_ASSEM_MEMBER
  6
Continuous
 62
     7
100
AcDbLine
 10
778.7151092126777
 20
-69.50813366059674
 30
0.0
 11
778.7151092126777
 21
-72.50813366059685
 31
0.0
  0
LINE
  5
1344
330
24C
100
AcDbEntity
  8
ALL_ASSEM_MEMBER
  6
Continuous
 62
     7
100
AcDbLine
 10
778.7151092126777
 20
-63.10813366059687
 30
0.0
 11
778.7151092126777
 21
-60.10813366059676
 31
0.0
  0
LINE
  5
1345
330
24C
100
AcDbEntity
  8
0
  6
Continuous
 62
     7
100
AcDbLine
 10
757.9073906616788
 20
-79.73040244059644
 30
0.0
 11
757.6334062566782
 21
-86.23697854059697
 31
0.0
  0
LINE
  5
1409
330
24C
100
AcDbEntity
  8
0
  6
Continuous
 62
     7
100
AcDbLine
 10
883.7312586266779
 20
-55.43220454659672
 30
0.0
 11
880.9986444386783
 21
-47.40993370559647
 31
0.0
  0
LINE
  5
140A
330
24C
100
AcDbEntity
  8
ALL_ASSEM_MEMBER
  6
Continuous
 62
     7
100
AcDbLine
 10
782.9416065206779
 20
-69.30813366059692
 30
0.0
 11
782.9416065206779
 21
-67.80813366059658
 31
0.0
  0
LINE
  5
140B
330
24C
100
AcDbEntity
  8
ALL_ASSEM_MEMBER
  6
Continuous
 62
     7
100
AcDbLine
 10
785.9416065206785
 20
-63.05739145159646
 30
0.0
 11
785.9416065206785
 21
-63.10813366059687
 31
0.0
  0
LINE
  5
140C
330
24C
100
AcDbEntity
  8
ALL_ASSEM_MEMBER
  6
Continuous
 62
     7
100
AcDbLine
 10
785.9416065206785
 20
-58.77714956559668
 30
0.0
 11
785.9416065206785
 21
-53.60813366059642
 31
0.0
  0
LINE
  5
140D
330
24C
100
AcDbEntity
  8
ALL_ASSEM_MEMBER
  6
Continuous
 62
     7
100
AcDbLine
 10
797.9416065206779
 20
-64.60813366059665
 30
0.0
 11
797.9416065206779
 21
-63.00519402559655
 31
0.0
  0
LINE
  5
140E
330
24C
100
AcDbEntity
  8
ALL_ASSEM_MEMBER
  6
Continuous
 62
     7
100
AcDbLine
 10
797.9416065206779
 20
-55.1259039175967
 30
0.0
 11
797.9416065206779
 21
-53.60813366059642
 31
0.0
  0
LINE
  5
1427
330
24C
100
AcDbEntity
  8
ALL_ASSEM_MEMBER
  6
Continuous
 62
     7
100
AcDbLine
 10
785.825928426678
 20
-62.99961655059701
 30
0.0
 11
785.8310389966784
 21
-62.7536877605969
 31
0.0
  0
LINE
  5
1428
330
24C
100
AcDbEntity
  8
ALL_ASSEM_MEMBER
  6
Continuous
 62
     7
100
AcDbLine
 10
785.8310389966784
 20
-62.7536877605969
 30
0.0
 11
785.848945452678
 21
-62.04836706459684
 31
0.0
  0
LINE
  5
1429
330
24C
100
AcDbEntity
  8
ALL_ASSEM_MEMBER
  6
Continuous
 62
     7
100
AcDbLine
 10
785.848945452678
 20
-62.04836706459684
 30
0.0
 11
785.8772512576792
 21
-61.01306511859672
 31
0.0
  0
LINE
  5
142A
330
24C
100
AcDbEntity
  8
ALL_ASSEM_MEMBER
  6
Continuous
 62
     7
100
AcDbLine
 10
785.8772512576792
 20
-61.01306511859672
 30
0.0
 11
785.9127796076785
 21
-59.7639748295968
 31
0.0
  0
LINE
  5
142B
330
24C
100
AcDbEntity
  8
ALL_ASSEM_MEMBER
  6
Continuous
 62
     7
100
AcDbLine
 10
785.9127796076785
 20
-59.7639748295968
 30
0.0
 11
785.9318858796787
 21
-59.10784878059655
 31
0.0
  0
LINE
  5
142C
330
24C
100
AcDbEntity
  8
ALL_ASSEM_MEMBER
  6
Continuous
 62
     7
100
AcDbLine
 10
785.9318858796787
 20
-59.10784878059655
 30
0.0
 11
786.0115648856784
 21
-56.47308849059652
 31
0.0
  0
LINE
  5
142D
330
24C
100
AcDbEntity
  8
ALL_ASSEM_MEMBER
  6
Continuous
 62
     7
100
AcDbLine
 10
786.0115648856784
 20
-56.47308849059652
 30
0.0
 11
786.0382427186785
 21
-55.64987338259652
 31
0.0
  0
LWPOLYLINE
  5
142E
330
24C
100
AcDbEntity
  8
ALL_ASSEM_MEMBER
  6
Continuous
 62
     7
100
AcDbPolyline
 90
        5
 70
     0
 43
0.0
 10
786.0382427186785
 20
-55.64987338259652
 10
786.0501423146793
 20
-55.31261949059694
 10
786.0540749416778
 20
-55.21478289959657
 10
786.0565976186781
 20
-55.16575492459662
 10
786.0573026676782
 20
-55.15987016759663
  0
LINE
  5
142F
330
24C
100
AcDbEntity
  8
0
  6
Continuous
 62
     7
100
AcDbLine
 10
761.8647003806786
 20
-60.96689863159679
 30
0.0
 11
761.4714699106783
 21
-64.65160561659684
 31
0.0
  0
LINE
  5
1430
330
24C
100
AcDbEntity
  8
0
  6
Continuous
 62
     7
100
AcDbLine
 10
762.2743826016786
 20
-57.39956122559658
 30
0.0
 11
761.8647003806786
 21
-60.96689863159679
 31
0.0
  0
LINE
  5
148F
330
24C
100
AcDbEntity
  8
0
  6
Continuous
 62
     7
100
AcDbLine
 10
888.1439095626781
 20
-76.12855665259654
 30
0.0
 11
885.6659237556772
 21
-64.65160561659684
 31
0.0
  0
LINE
  5
1490
330
24C
100
AcDbEntity
  8
0
  6
Continuous
 62
     7
100
AcDbLine
 10
885.6659237556772
 20
-64.65160561659684
 30
0.0
 11
883.7312586266779
 21
-55.43220454659672
 31
0.0
  0
LINE
  5
1491
330
24C
100
AcDbEntity
  8
0
  6
Continuous
 62
     7
100
AcDbLine
 10
889.0550716476782
 20
-86.66516025459669
 30
0.0
 11
888.1439095626781
 21
-76.12855665259654
 31
0.0
  0
LINE
  5
14C4
330
24C
100
AcDbEntity
  8
0
  6
Continuous
 62
     7
100
AcDbLine
 10
761.4714699106783
 20
-64.65160561659684
 30
0.0
 11
760.3683230686779
 21
-69.8548730345966
 31
0.0
  0
LINE
  5
14C5
330
24C
100
AcDbEntity
  8
0
  6
Continuous
 62
     7
100
AcDbLine
 10
758.985996411679
 20
-74.83552286459667
 30
0.0
 11
757.9073906616788
 21
-79.73040244059644
 31
0.0
  0
LINE
  5
14C7
330
24C
100
AcDbEntity
  8
0
  6
Continuous
 62
     7
100
AcDbLine
 10
763.116429564679
 20
-54.23352781059702
 30
0.0
 11
762.2743826016786
 21
-57.39956122559658
 31
0.0
  0
LINE
  5
154D
330
24C
100
AcDbEntity
  8
0
  6
Continuous
 62
     7
100
AcDbLine
 10
760.3683230686779
 20
-69.8548730345966
 30
0.0
 11
758.985996411679
 21
-74.83552286459667
 31
0.0
  0
LINE
  5
16D4
330
24C
100
AcDbEntity
  8
0
  6
Continuous
 62
     7
100
AcDbLine
 10
886.2269405716785
 20
-94.30813366059694
 30
0.0
 11
889.0550716476782
 21
-86.66516025459669
 31
0.0
  0
LINE
  5
1778
330
24C
100
AcDbEntity
  8
ALL_ASSEM_MEMBER
  6
Continuous
 62
     7
100
AcDbLine
 10
768.1681038286793
 20
-59.10813366059653
 30
0.0
 11
767.1681038286778
 21
-60.10813366059676
 31
0.0
  0
LINE
  5
1779
330
24C
100
AcDbEntity
  8
ALL_ASSEM_MEMBER
  6
Continuous
 62
     7
100
AcDbLine
 10
767.1681038286778
 20
-69.50813366059674
 30
0.0
 11
768.1681038286793
 21
-68.50813366059651
 31
0.0
  0
LINE
  5
177A
330
24C
100
AcDbEntity
  8
ALL_ASSEM_MEMBER
  6
Continuous
 62
     7
100
AcDbLine
 10
777.7151092126787
 20
-73.50813366059651
 30
0.0
 11
778.7151092126777
 21
-72.50813366059685
 31
0.0
  0
LINE
  5
177B
330
24C
100
AcDbEntity
  8
ALL_ASSEM_MEMBER
  6
Continuous
 62
     7
100
AcDbLine
 10
775.9416065206785
 20
-82.60813366059676
 30
0.0
 11
775.4416065206779
 21
-83.10813366059688
 31
0.0
  0
LWPOLYLINE
  5
177D
330
24C
100
AcDbEntity
  8
ALL_ASSEM_MEMBER
  6
Continuous
 62
     7
100
AcDbPolyline
 90
       36
 70
     0
 43
0.0
 10
767.1681038286778
 20
-69.50813366059674
 10
767.2613849276781
 20
-69.41714990259652
 10
767.3522345526789
 20
-69.33309427259655
 10
767.4409611296772
 20
-69.2555414945964
 10
767.527839080678
 20
-69.18413610659695
 10
767.613116089678
 20
-69.11858100659697
 10
767.6970119316782
 20
-69.05863357359704
 10
767.7797241426783
 20
-69.00409658759666
 10
767.8614300166778
 20
-68.95481266259662
 10
767.9422902886785
 20
-68.91065809459701
 10
768.0224430726782
 20
-68.8715420695969
 10
768.1020123696778
 20
-68.83739757459648
 10
768.1811089056777
 20
-68.80817759759634
 10
768.2598297356783
 20
-68.7838517235964
 10
768.3382593586776
 20
-68.7644020355965
 10
768.4164727326782
 20
-68.74981895659698
 10
768.494537808678
 20
-68.74009812359655
 10
768.5725163296781
 20
-68.73523818259696
 10
768.6504662026784
 20
-68.7352389165967
 10
768.7284444606786
 20
-68.74010029759641
 10
768.8065090076788
 20
-68.74982249359687
 10
768.8847215916776
 20
-68.76440680459677
 10
768.9631500626781
 20
-68.78385751659675
 10
769.0418694456782
 20
-68.80818416259683
 10
769.1209642246776
 20
-68.83740459959665
 10
769.200531529678
 20
-68.87154922459683
 10
769.2806819326786
 20
-68.9106649305968
 10
769.3615393876775
 20
-68.95481864059671
 10
769.4432440586781
 20
-69.00410239459643
 10
769.5259544576783
 20
-69.05863864859678
 10
769.6098479606787
 20
-69.11858474959683
 10
769.6951226216783
 20
-69.18413825359676
 10
769.7819993456785
 20
-69.25554274259707
 10
769.8707249836782
 20
-69.3330947515967
 10
769.9615741696784
 20
-69.41714999159683
 10
770.0548551746778
 20
-69.50813366059674
  0
LWPOLYLINE
  5
177E
330
24C
100
AcDbEntity
  8
ALL_ASSEM_MEMBER
  6
Continuous
 62
     7
100
AcDbPolyline
 90
       36
 70
     0
 43
0.0
 10
775.8283578666778
 20
-69.50813366059674
 10
775.921638965678
 20
-69.41714990259652
 10
776.0124885906777
 20
-69.33309427259655
 10
776.1012151676784
 20
-69.2555414945964
 10
776.1880931186778
 20
-69.18413610659695
 10
776.2733701276779
 20
-69.11858100659697
 10
776.3572659696781
 20
-69.05863357359704
 10
776.4399781806782
 20
-69.00409658759666
 10
776.5216840546777
 20
-68.95481266259662
 10
776.602544325678
 20
-68.91065809459701
 10
776.6826971106781
 20
-68.8715420695969
 10
776.7622664076789
 20
-68.83739757459648
 10
776.8413629436787
 20
-68.80817759759634
 10
776.9200837736782
 20
-68.7838517235964
 10
776.9985133966788
 20
-68.7644020355965
 10
777.0767267706783
 20
-68.74981895659698
 10
777.154791846678
 20
-68.74009812359655
 10
777.2327703676792
 20
-68.73523818259696
 10
777.3107202406773
 20
-68.7352389165967
 10
777.3886984986774
 20
-68.74010029759641
 10
777.4667630456788
 20
-68.74982249359687
 10
777.5449756296775
 20
-68.76440680459677
 10
777.6234041006792
 20
-68.78385751659675
 10
777.7021234836781
 20
-68.80818416259683
 10
777.7812182626775
 20
-68.83740459959665
 10
777.860785567679
 20
-68.87154922459683
 10
777.9409359706785
 20
-68.9106649305968
 10
778.0217934246782
 20
-68.95481864059671
 10
778.1034980966792
 20
-69.00410239459643
 10
778.1862084956783
 20
-69.05863864859678
 10
778.2701019976782
 20
-69.11858474959683
 10
778.3553766596782
 20
-69.18413825359676
 10
778.4422533836773
 20
-69.25554274259707
 10
778.5309790216793
 20
-69.3330947515967
 10
778.6218282076784
 20
-69.41714999159683
 10
778.7151092126777
 20
-69.50813366059674
  0
LINE
  5
1781
330
24C
100
AcDbEntity
  8
0
  6
Continuous
 62
     7
100
AcDbLine
 10
769.5211238796782
 20
-48.53215662059665
 30
0.0
 11
763.116429564679
 21
-54.23352781059702
 31
0.0
  0
LWPOLYLINE
  5
1866
330
24C
100
AcDbEntity
  8
ALL_ASSEM_MEMBER
  6
Continuous
 62
     7
100
AcDbPolyline
 90
       36
 70
     0
 43
0.0
 10
770.0548551746778
 20
-69.50813366059674
 10
770.2414173726784
 20
-69.41714990259652
 10
770.4231166226778
 20
-69.33309427259655
 10
770.6005697766778
 20
-69.2555414945964
 10
770.7743256776776
 20
-69.18413610659695
 10
770.944879696678
 20
-69.11858100659697
 10
771.1126713816788
 20
-69.05863357359704
 10
771.2780958016783
 20
-69.00409658759666
 10
771.4415075516781
 20
-68.95481266259662
 10
771.6032280936787
 20
-68.91065809459701
 10
771.7635336626785
 20
-68.8715420695969
 10
771.9226722576782
 20
-68.83739757459648
 10
772.0808653286776
 20
-68.80817759759634
 10
772.2383069886786
 20
-68.7838517235964
 10
772.3951662346776
 20
-68.7644020355965
 10
772.5515929826788
 20
-68.74981895659698
 10
772.7077231356787
 20
-68.74009812359655
 10
772.8636801776787
 20
-68.73523818259696
 10
773.0195799226778
 20
-68.7352389165967
 10
773.1755364386783
 20
-68.74010029759641
 10
773.3316655326786
 20
-68.74982249359687
 10
773.4880907016777
 20
-68.76440680459677
 10
773.6449476426782
 20
-68.78385751659675
 10
773.8023864086784
 20
-68.80818416259683
 10
773.9605759666773
 20
-68.83740459959665
 10
774.1197105766782
 20
-68.87154922459683
 10
774.2800113826793
 20
-68.9106649305968
 10
774.441726291679
 20
-68.95481864059671
 10
774.6051356346783
 20
-69.00410239459643
 10
774.7705564326787
 20
-69.05863864859678
 10
774.9383434376779
 20
-69.11858474959683
 10
775.1088927606788
 20
-69.18413825359676
 10
775.2826462076787
 20
-69.25554274259707
 10
775.4600974846785
 20
-69.3330947515967
 10
775.6417958556785
 20
-69.41714999159683
 10
775.8283578666778
 20
-69.50813366059674
  0
LINE
  5
1867
330
24C
100
AcDbEntity
  8
0
  6
Continuous
 62
     7
100
AcDbLine
 10
850.4236731426789
 20
-41.32379734459687
 30
0.0
 11
843.4452926466788
 21
-43.54129006159678
 31
0.0
  0
LWPOLYLINE
  5
188A
330
24C
100
AcDbEntity
  8
ALL_ASSEM_MEMBER
  6
Continuous
 62
     7
100
AcDbPolyline
 90
        9
 70
     0
 43
0.0
 10
875.709355094678
 20
-41.44227943559667
 10
873.8136635956783
 20
-42.01110706759675
 10
863.1985897696786
 20
-44.94358114459669
 10
852.3960952346779
 20
-47.62654102459646
 10
841.6614637486776
 20
-49.95493347159663
 10
831.2167250176782
 20
-51.86207613359681
 10
821.2035898976781
 20
-53.32597232959654
 10
811.6823126966785
 20
-54.35761324659677
 10
802.657369084679
 20
-54.9848268235969
  0
LWPOLYLINE
  5
18BD
330
24C
100
AcDbEntity
  8
ALL_ASSEM_MEMBER
  6
Continuous
 62
     7
100
AcDbPolyline
 90
       17
 70
     0
 43
0.0
 10
473.5046003711777
 20
945.3450496106296
 10
473.2951519516773
 20
945.4630050416295
 10
473.0907144316774
 20
945.57222939363
 10
472.8906297241774
 20
945.6732172581295
 10
472.6943123481778
 20
945.7663770141298
 10
472.5012332301775
 20
945.8520452391299
 10
472.3109219376778
 20
945.9304915131296
 10
472.1229543851777
 20
946.0019295911299
 10
471.9369543111779
 20
946.0665222556299
 10
471.7525880581774
 20
946.1243890076298
 10
471.5695605741776
 20
946.1756129391297
 10
471.3876164776775
 20
946.2202461061297
 10
471.206531628678
 20
946.25831740413
 10
471.0261153656774
 20
946.2898373631301
 10
470.8462029581778
 20
946.3148049061301
 10
470.6666533456773
 20
946.3332122561295
 10
470.4873443306778
 20
946.3450496106296
  0
LWPOLYLINE
  5
18CC
330
24C
100
AcDbEntity
  8
ALL_ASSEM_MEMBER
  6
Continuous
 62
     7
100
AcDbPolyline
 90
       17
 70
     0
 43
0.0
 10
480.0046003711777
 20
945.3450496106296
 10
479.7951519516778
 20
945.4630050416295
 10
479.5907144316779
 20
945.57222939363
 10
479.3906297241774
 20
945.6732172581295
 10
479.1943123481778
 20
945.7663770141298
 10
479.001233230178
 20
945.8520452391299
 10
478.8109219376774
 20
945.9304915131296
 10
478.6229543851773
 20
946.0019295911299
 10
478.4369543111774
 20
946.0665222556299
 10
478.2525880581779
 20
946.1243890076298
 10
478.0695605741779
 20
946.1756129391297
 10
477.887616477678
 20
946.2202461061297
 10
477.7065316286775
 20
946.25831740413
 10
477.5261153656779
 20
946.2898373631301
 10
477.3462029581778
 20
946.3148049061301
 10
477.1666533456778
 20
946.3332122561295
 10
476.9873443306778
 20
946.3450496106296
  0
LWPOLYLINE
  5
18CF
330
24C
100
AcDbEntity
  8
ALL_ASSEM_MEMBER
  6
Continuous
 62
     7
100
AcDbPolyline
 90
       17
 70
     0
 43
0.0
 10
553.7385043526783
 20
945.3450496106296
 10
553.5290559336781
 20
945.4630050416295
 10
553.3246184131776
 20
945.57222939363
 10
553.124533705678
 20
945.6732172581295
 10
552.9282163296779
 20
945.7663770141298
 10
552.7351372121775
 20
945.8520452391299
 10
552.5448259191775
 20
945.9304915131296
 10
552.3568583671776
 20
946.0019295911299
 10
552.1708582926776
 20
946.0665222556299
 10
551.9864920396776
 20
946.1243890076298
 10
551.8034645556777
 20
946.1756129391297
 10
551.6215204596774
 20
946.2202461061297
 10
551.4404356101777
 20
946.25831740413
 10
551.2600193476778
 20
946.2898373631301
 10
551.0801069396775
 20
946.3148049061301
 10
550.9005573276781
 20
946.3332122561295
 10
550.7212483126777
 20
946.3450496106296
  0
LWPOLYLINE
  5
18D0
330
24C
100
AcDbEntity
  8
ALL_ASSEM_MEMBER
  6
Continuous
 62
     7
100
AcDbPolyline
 90
       17
 70
     0
 43
0.0
 10
560.2385043526778
 20
945.3450496106296
 10
560.0290559336777
 20
945.4630050416295
 10
559.8246184131776
 20
945.57222939363
 10
559.6245337056775
 20
945.6732172581295
 10
559.4282163296774
 20
945.7663770141298
 10
559.2351372121778
 20
945.8520452391299
 10
559.044825919178
 20
945.9304915131296
 10
558.8568583671777
 20
946.0019295911299
 10
558.6708582926775
 20
946.0665222556299
 10
558.4864920396776
 20
946.1243890076298
 10
558.3034645556781
 20
946.1756129391297
 10
558.1215204596778
 20
946.2202461061297
 10
557.9404356101776
 20
946.25831740413
 10
557.7600193476773
 20
946.2898373631301
 10
557.5801069396775
 20
946.3148049061301
 10
557.4005573276776
 20
946.3332122561295
 10
557.2212483126777
 20
946.3450496106296
  0
LINE
  5
18D6
330
24C
100
AcDbEntity
  8
ALL_ASSEM_MEMBER
  6
Continuous
 62
     7
100
AcDbLine
 10
487.0046003711776
 20
934.54504961063
 30
0.0
 11
482.0046003711777
 21
941.04504961063
 31
0.0
  0
LINE
  5
18D8
330
24C
100
AcDbEntity
  8
ALL_ASSEM_MEMBER
  6
Continuous
 62
     7
100
AcDbLine
 10
301.4416065206774
 20
904.5450496106299
 30
0.0
 11
301.4416065206774
 21
929.5450496106299
 31
0.0
  0
LINE
  5
18D9
330
24C
100
AcDbEntity
  8
ALL_ASSEM_MEMBER
  6
Continuous
 62
     7
100
AcDbLine
 10
303.4416065206774
 20
904.5450496106299
 30
0.0
 11
303.4416065206774
 21
929.5450496106299
 31
0.0
  0
LWPOLYLINE
  5
18E1
330
24C
100
AcDbEntity
  8
ALL_ASSEM_MEMBER
  6
Continuous
 62
     7
100
AcDbPolyline
 90
       17
 70
     0
 43
0.0
 10
1075.395868710678
 20
946.3450496106296
 10
1075.216345382178
 20
946.3331941856294
 10
1075.036591771178
 20
946.31475440263
 10
1074.856489826677
 20
946.28974201963
 10
1074.675902174178
 20
946.2581673141299
 10
1074.494668489677
 20
946.2200345666296
 10
1074.312600942177
 20
946.1753366366297
 10
1074.129480283678
 20
946.1240489736296
 10
1073.945053631178
 20
946.0661236616298
 10
1073.759030240178
 20
946.00148263463
 10
1073.571080645177
 20
945.9300118026298
 10
1073.380831192177
 20
945.8515535006295
 10
1073.187864056677
 20
945.7659009241297
 10
1072.991711232178
 20
945.67279014713
 10
1072.791850566178
 20
945.5718926716299
 10
1072.587701144178
 20
945.46280750613
 10
1072.378612670178
 20
945.3450496106296
  0
LWPOLYLINE
  5
18E2
330
24C
100
AcDbEntity
  8
ALL_ASSEM_MEMBER
  6
Continuous
 62
     7
100
AcDbPolyline
 90
       17
 70
     0
 43
0.0
 10
1068.895868710677
 20
946.3450496106296
 10
1068.716345382177
 20
946.3331941856294
 10
1068.536591771178
 20
946.31475440263
 10
1068.356489826677
 20
946.28974201963
 10
1068.175902174178
 20
946.2581673141299
 10
1067.994668489677
 20
946.2200345666296
 10
1067.812600942177
 20
946.1753366366297
 10
1067.629480283677
 20
946.1240489736296
 10
1067.445053631178
 20
946.0661236616298
 10
1067.259030240178
 20
946.00148263463
 10
1067.071080645177
 20
945.9300118026298
 10
1066.880831192177
 20
945.8515535006295
 10
1066.687864056677
 20
945.7659009241297
 10
1066.491711232177
 20
945.67279014713
 10
1066.291850566177
 20
945.5718926716299
 10
1066.087701144177
 20
945.46280750613
 10
1065.878612670178
 20
945.3450496106296
  0
LWPOLYLINE
  5
18E3
330
24C
100
AcDbEntity
  8
ALL_ASSEM_MEMBER
  6
Continuous
 62
     7
100
AcDbPolyline
 90
       17
 70
     0
 43
0.0
 10
995.1619647286778
 20
946.3450496106296
 10
994.9824414001778
 20
946.3331941856294
 10
994.8026877891779
 20
946.31475440263
 10
994.622585845178
 20
946.28974201963
 10
994.441998192178
 20
946.2581673141299
 10
994.2607645076778
 20
946.2200345666296
 10
994.0786969606773
 20
946.1753366366297
 10
993.8955763016775
 20
946.1240489736296
 10
993.7111496496772
 20
946.0661236616298
 10
993.5251262586776
 20
946.00148263463
 10
993.3371766636778
 20
945.9300118026298
 10
993.1469272101778
 20
945.8515535006295
 10
992.953960074678
 20
945.7659009241297
 10
992.7578072501782
 20
945.67279014713
 10
992.5579465846777
 20
945.5718926716299
 10
992.3537971621781
 20
945.46280750613
 10
992.1447086886773
 20
945.3450496106296
  0
LWPOLYLINE
  5
18E4
330
24C
100
AcDbEntity
  8
ALL_ASSEM_MEMBER
  6
Continuous
 62
     7
100
AcDbPolyline
 90
       17
 70
     0
 43
0.0
 10
988.661964728678
 20
946.3450496106296
 10
988.4824414001778
 20
946.3331941856294
 10
988.3026877891776
 20
946.31475440263
 10
988.1225858451782
 20
946.28974201963
 10
987.9419981921783
 20
946.2581673141299
 10
987.7607645076777
 20
946.2200345666296
 10
987.5786969606778
 20
946.1753366366297
 10
987.3955763016779
 20
946.1240489736296
 10
987.2111496496772
 20
946.0661236616298
 10
987.025126258678
 20
946.00148263463
 10
986.8371766636778
 20
945.9300118026298
 10
986.6469272101776
 20
945.8515535006295
 10
986.4539600746775
 20
945.7659009241297
 10
986.2578072501777
 20
945.67279014713
 10
986.0579465846781
 20
945.5718926716299
 10
985.8537971621776
 20
945.46280750613
 10
985.6447086886777
 20
945.3450496106296
  0
LINE
  5
18E5
330
24C
100
AcDbEntity
  8
ALL_ASSEM_MEMBER
  6
Continuous
 62
     7
100
AcDbLine
 10
301.4416065206774
 20
904.5450496106299
 30
0.0
 11
1244.441606520678
 21
904.5450496106299
 31
0.0
  0
LINE
  5
18EC
330
24C
100
AcDbEntity
  8
ALL_ASSEM_MEMBER
  6
Continuous
 62
     7
100
AcDbLine
 10
469.5046003711777
 20
916.5450496106295
 30
0.0
 11
477.5046003711777
 21
916.5450496106295
 31
0.0
  0
LINE
  5
18ED
330
24C
100
AcDbEntity
  8
ALL_ASSEM_MEMBER
  6
Continuous
 62
     7
100
AcDbLine
 10
549.7385043526779
 20
916.5450496106295
 30
0.0
 11
557.7385043526779
 21
916.5450496106295
 31
0.0
  0
LINE
  5
18EE
330
24C
100
AcDbEntity
  8
ALL_ASSEM_MEMBER
  6
Continuous
 62
     7
100
AcDbLine
 10
688.7077025391781
 20
916.5450496106295
 30
0.0
 11
696.7077025391771
 21
916.5450496106295
 31
0.0
  0
LINE
  5
18F0
330
24C
100
AcDbEntity
  8
ALL_ASSEM_MEMBER
  6
Continuous
 62
     7
100
AcDbLine
 10
988.1447086886778
 20
916.5450496106295
 30
0.0
 11
996.1447086886778
 21
916.5450496106295
 31
0.0
  0
LINE
  5
18F1
330
24C
100
AcDbEntity
  8
ALL_ASSEM_MEMBER
  6
Continuous
 62
     7
100
AcDbLine
 10
1068.378612670178
 20
916.5450496106295
 30
0.0
 11
1076.378612670178
 21
916.5450496106295
 31
0.0
  0
LINE
  5
18FA
330
24C
100
AcDbEntity
  8
ALL_ASSEM_MEMBER
  6
Continuous
 62
     7
100
AcDbLine
 10
306.4416065206774
 20
932.54504961063
 30
0.0
 11
1239.441606520678
 21
932.54504961063
 31
0.0
  0
LINE
  5
18FB
330
24C
100
AcDbEntity
  8
ALL_ASSEM_MEMBER
  6
Continuous
 62
     7
100
AcDbLine
 10
306.4416065206774
 20
934.54504961063
 30
0.0
 11
546.0157824851775
 21
934.54504961063
 31
0.0
  0
LINE
  5
18FE
330
24C
100
AcDbEntity
  8
ALL_ASSEM_MEMBER
  6
Continuous
 62
     7
100
AcDbLine
 10
999.8674305561776
 20
934.54504961063
 30
0.0
 11
1239.441606520678
 21
934.54504961063
 31
0.0
  0
LINE
  5
190C
330
24C
100
AcDbEntity
  8
ALL_ASSEM_MEMBER
  6
Continuous
 62
     7
100
AcDbLine
 10
465.0046243066777
 20
941.04504961063
 30
0.0
 11
482.0045764351771
 21
941.04504961063
 31
0.0
  0
LINE
  5
190D
330
24C
100
AcDbEntity
  8
ALL_ASSEM_MEMBER
  6
Continuous
 62
     7
100
AcDbLine
 10
545.2385282886775
 20
941.04504961063
 30
0.0
 11
562.2384804171779
 21
941.04504961063
 31
0.0
  0
LINE
  5
190E
330
24C
100
AcDbEntity
  8
ALL_ASSEM_MEMBER
  6
Continuous
 62
     7
100
AcDbLine
 10
983.6447326241778
 20
941.04504961063
 30
0.0
 11
1000.644684752678
 21
941.04504961063
 31
0.0
  0
LINE
  5
190F
330
24C
100
AcDbEntity
  8
ALL_ASSEM_MEMBER
  6
Continuous
 62
     7
100
AcDbLine
 10
1063.878636606178
 20
941.04504961063
 30
0.0
 11
1080.878588734677
 21
941.04504961063
 31
0.0
  0
LINE
  5
1916
330
24C
100
AcDbEntity
  8
ALL_ASSEM_MEMBER
  6
Continuous
 62
     7
100
AcDbLine
 10
467.0046003711777
 20
946.3450496106296
 30
0.0
 11
480.0046003711777
 21
946.3450496106296
 31
0.0
  0
LINE
  5
1917
330
24C
100
AcDbEntity
  8
ALL_ASSEM_MEMBER
  6
Continuous
 62
     7
100
AcDbLine
 10
547.2385043526778
 20
946.3450496106296
 30
0.0
 11
560.2385043526778
 21
946.3450496106296
 31
0.0
  0
LINE
  5
1918
330
24C
100
AcDbEntity
  8
ALL_ASSEM_MEMBER
  6
Continuous
 62
     7
100
AcDbLine
 10
985.6447086886777
 20
946.3450496106296
 30
0.0
 11
998.6447086886778
 21
946.3450496106296
 31
0.0
  0
LINE
  5
1919
330
24C
100
AcDbEntity
  8
ALL_ASSEM_MEMBER
  6
Continuous
 62
     7
100
AcDbLine
 10
1065.878612670178
 20
946.3450496106296
 30
0.0
 11
1078.878612670178
 21
946.3450496106296
 31
0.0
  0
LWPOLYLINE
  5
193B
330
24C
100
AcDbEntity
  8
ALL_ASSEM_MEMBER
  6
Continuous
 62
     7
100
AcDbPolyline
 90
       17
 70
     0
 43
0.0
 10
556.7557603931778
 20
946.3450496106296
 10
556.5762370646775
 20
946.3331941856294
 10
556.3964834536782
 20
946.31475440263
 10
556.2163815091776
 20
946.28974201963
 10
556.0357938566776
 20
946.2581673141299
 10
555.854560172178
 20
946.2200345666296
 10
555.6724926251777
 20
946.1753366366297
 10
555.4893719661777
 20
946.1240489736296
 10
555.3049453136776
 20
946.0661236616298
 10
555.1189219226776
 20
946.00148263463
 10
554.9309723276774
 20
945.9300118026298
 10
554.7407228746778
 20
945.8515535006295
 10
554.5477557391778
 20
945.7659009241297
 10
554.3516029146776
 20
945.67279014713
 10
554.1517422491773
 20
945.5718926716299
 10
553.9475928266774
 20
945.46280750613
 10
553.7385043526783
 20
945.3450496106296
  0
LWPOLYLINE
  5
193C
330
24C
100
AcDbEntity
  8
ALL_ASSEM_MEMBER
  6
Continuous
 62
     7
100
AcDbPolyline
 90
       17
 70
     0
 43
0.0
 10
550.2557603931773
 20
946.3450496106296
 10
550.076237064678
 20
946.3331941856294
 10
549.8964834536777
 20
946.31475440263
 10
549.716381509178
 20
946.28974201963
 10
549.5357938566776
 20
946.2581673141299
 10
549.3545601721775
 20
946.2200345666296
 10
549.1724926251777
 20
946.1753366366297
 10
548.9893719661777
 20
946.1240489736296
 10
548.8049453136782
 20
946.0661236616298
 10
548.6189219226775
 20
946.00148263463
 10
548.4309723276778
 20
945.9300118026298
 10
548.2407228746774
 20
945.8515535006295
 10
548.0477557391777
 20
945.7659009241297
 10
547.8516029146776
 20
945.67279014713
 10
547.6517422491779
 20
945.5718926716299
 10
547.4475928266774
 20
945.46280750613
 10
547.2385043526778
 20
945.3450496106296
  0
LWPOLYLINE
  5
193D
330
24C
100
AcDbEntity
  8
ALL_ASSEM_MEMBER
  6
Continuous
 62
     7
100
AcDbPolyline
 90
       17
 70
     0
 43
0.0
 10
476.5218564111774
 20
946.3450496106296
 10
476.3423330831774
 20
946.3331941856294
 10
476.1625794716774
 20
946.31475440263
 10
475.9824775276775
 20
946.28974201963
 10
475.8018898746777
 20
946.2581673141299
 10
475.6206561901776
 20
946.2200345666296
 10
475.4385886431777
 20
946.1753366366297
 10
475.2554679841778
 20
946.1240489736296
 10
475.0710413321776
 20
946.0661236616298
 10
474.8850179411779
 20
946.00148263463
 10
474.6970683461777
 20
945.9300118026298
 10
474.5068188926775
 20
945.8515535006295
 10
474.3138517571778
 20
945.7659009241297
 10
474.1176989326777
 20
945.67279014713
 10
473.9178382671775
 20
945.5718926716299
 10
473.7136888446776
 20
945.46280750613
 10
473.5046003711777
 20
945.3450496106296
  0
LWPOLYLINE
  5
193E
330
24C
100
AcDbEntity
  8
ALL_ASSEM_MEMBER
  6
Continuous
 62
     7
100
AcDbPolyline
 90
       17
 70
     0
 43
0.0
 10
470.0218564111778
 20
946.3450496106296
 10
469.8423330831774
 20
946.3331941856294
 10
469.6625794716778
 20
946.31475440263
 10
469.4824775276779
 20
946.28974201963
 10
469.3018898746777
 20
946.2581673141299
 10
469.1206561901776
 20
946.2200345666296
 10
468.9385886431782
 20
946.1753366366297
 10
468.7554679841777
 20
946.1240489736296
 10
468.5710413321776
 20
946.0661236616298
 10
468.3850179411774
 20
946.00148263463
 10
468.1970683461777
 20
945.9300118026298
 10
468.006818892678
 20
945.8515535006295
 10
467.8138517571774
 20
945.7659009241297
 10
467.6176989326777
 20
945.67279014713
 10
467.4178382671779
 20
945.5718926716299
 10
467.213688844678
 20
945.46280750613
 10
467.0046003711777
 20
945.3450496106296
  0
LINE
  5
198E
330
24C
100
AcDbEntity
  8
ALL_ASSEM_MEMBER
  6
Continuous
 62
     7
100
AcDbLine
 10
562.7127528561778
 20
940.4285265561297
 30
0.0
 11
562.2385043526779
 21
941.04504961063
 31
0.0
  0
LINE
  5
19E2
330
24C
100
AcDbEntity
  8
ALL_ASSEM_MEMBER
  6
Continuous
 62
     7
100
AcDbLine
 10
984.7376252201774
 20
937.6725762076298
 30
0.0
 11
995.4107424401778
 21
933.4033293196298
 31
0.0
  0
LINE
  5
19E3
330
24C
100
AcDbEntity
  8
ALL_ASSEM_MEMBER
  6
Continuous
 62
     7
100
AcDbLine
 10
985.4416065206779
 20
939.5450496106301
 30
0.0
 11
996.1535237926781
 21
935.2602827016298
 31
0.0
  0
LINE
  5
19ED
330
24C
100
AcDbEntity
  8
ALL_ASSEM_MEMBER
  6
Continuous
 62
     7
100
AcDbLine
 10
467.0046003711777
 20
941.04504961063
 30
0.0
 11
467.0046003711777
 21
946.3450496106296
 31
0.0
  0
LINE
  5
19F3
330
24C
100
AcDbEntity
  8
ALL_ASSEM_MEMBER
  6
Continuous
 62
     7
100
AcDbLine
 10
469.5046003711777
 20
932.54504961063
 30
0.0
 11
469.5046003711777
 21
916.5450496106295
 31
0.0
  0
LINE
  5
19F5
330
24C
100
AcDbEntity
  8
ALL_ASSEM_MEMBER
  6
Continuous
 62
     7
100
AcDbLine
 10
473.5046003711777
 20
941.04504961063
 30
0.0
 11
473.5046003711777
 21
945.3450496106296
 31
0.0
  0
LINE
  5
19F6
330
24C
100
AcDbEntity
  8
ALL_ASSEM_MEMBER
  6
Continuous
 62
     7
100
AcDbLine
 10
477.5046003711777
 20
932.54504961063
 30
0.0
 11
477.5046003711777
 21
916.5450496106295
 31
0.0
  0
LINE
  5
19F8
330
24C
100
AcDbEntity
  8
ALL_ASSEM_MEMBER
  6
Continuous
 62
     7
100
AcDbLine
 10
480.0046003711777
 20
941.04504961063
 30
0.0
 11
480.0046003711777
 21
946.3450496106296
 31
0.0
  0
LWPOLYLINE
  5
1A33
330
24C
100
AcDbEntity
  8
ALL_ASSEM_MEMBER
  6
Continuous
 62
     7
100
AcDbPolyline
 90
       17
 70
     0
 43
0.0
 10
992.1447086886773
 20
945.3450496106296
 10
991.9352602691779
 20
945.4630050416295
 10
991.7308227491776
 20
945.57222939363
 10
991.5307380411778
 20
945.6732172581295
 10
991.3344206656775
 20
945.7663770141298
 10
991.141341547678
 20
945.8520452391299
 10
990.9510302551776
 20
945.9304915131296
 10
990.7630627026778
 20
946.0019295911299
 10
990.5770626281778
 20
946.0665222556299
 10
990.3926963756775
 20
946.1243890076298
 10
990.2096688916776
 20
946.1756129391297
 10
990.027724795178
 20
946.2202461061297
 10
989.8466399461776
 20
946.25831740413
 10
989.6662236831776
 20
946.2898373631301
 10
989.4863112751782
 20
946.3148049061301
 10
989.3067616631778
 20
946.3332122561295
 10
989.127452648178
 20
946.3450496106296
  0
LWPOLYLINE
  5
1A34
330
24C
100
AcDbEntity
  8
ALL_ASSEM_MEMBER
  6
Continuous
 62
     7
100
AcDbPolyline
 90
       17
 70
     0
 43
0.0
 10
998.6447086886778
 20
945.3450496106296
 10
998.4352602691775
 20
945.4630050416295
 10
998.2308227491781
 20
945.57222939363
 10
998.0307380411778
 20
945.6732172581295
 10
997.8344206656775
 20
945.7663770141298
 10
997.6413415476777
 20
945.8520452391299
 10
997.451030255177
 20
945.9304915131296
 10
997.2630627026783
 20
946.0019295911299
 10
997.0770626281783
 20
946.0665222556299
 10
996.8926963756775
 20
946.1243890076298
 10
996.7096688916777
 20
946.1756129391297
 10
996.5277247951776
 20
946.2202461061297
 10
996.3466399461777
 20
946.25831740413
 10
996.1662236831781
 20
946.2898373631301
 10
995.9863112751779
 20
946.3148049061301
 10
995.8067616631778
 20
946.3332122561295
 10
995.6274526481776
 20
946.3450496106296
  0
LINE
  5
1A46
330
24C
100
AcDbEntity
  8
ALL_ASSEM_MEMBER
  6
Continuous
 62
     7
100
AcDbLine
 10
547.2385043526778
 20
941.04504961063
 30
0.0
 11
547.2385043526778
 21
946.3450496106296
 31
0.0
  0
LINE
  5
1A47
330
24C
100
AcDbEntity
  8
ALL_ASSEM_MEMBER
  6
Continuous
 62
     7
100
AcDbLine
 10
549.7385043526779
 20
932.54504961063
 30
0.0
 11
549.7385043526779
 21
916.5450496106295
 31
0.0
  0
LWPOLYLINE
  5
1A66
330
24C
100
AcDbEntity
  8
ALL_ASSEM_MEMBER
  6
Continuous
 62
     7
100
AcDbPolyline
 90
       17
 70
     0
 43
0.0
 10
1072.378612670178
 20
945.3450496106296
 10
1072.169164251178
 20
945.4630050416295
 10
1071.964726730678
 20
945.57222939363
 10
1071.764642023177
 20
945.6732172581295
 10
1071.568324647178
 20
945.7663770141298
 10
1071.375245529678
 20
945.8520452391299
 10
1071.184934236677
 20
945.9304915131296
 10
1070.996966684677
 20
946.0019295911299
 10
1070.810966610177
 20
946.0665222556299
 10
1070.626600357178
 20
946.1243890076298
 10
1070.443572873177
 20
946.1756129391297
 10
1070.261628777178
 20
946.2202461061297
 10
1070.080543927677
 20
946.25831740413
 10
1069.900127665178
 20
946.2898373631301
 10
1069.720215257178
 20
946.3148049061301
 10
1069.540665645178
 20
946.3332122561295
 10
1069.361356630177
 20
946.3450496106296
  0
LWPOLYLINE
  5
1A67
330
24C
100
AcDbEntity
  8
ALL_ASSEM_MEMBER
  6
Continuous
 62
     7
100
AcDbPolyline
 90
       17
 70
     0
 43
0.0
 10
1078.878612670178
 20
945.3450496106296
 10
1078.669164251178
 20
945.4630050416295
 10
1078.464726730678
 20
945.57222939363
 10
1078.264642023177
 20
945.6732172581295
 10
1078.068324647177
 20
945.7663770141298
 10
1077.875245529678
 20
945.8520452391299
 10
1077.684934236677
 20
945.9304915131296
 10
1077.496966684677
 20
946.0019295911299
 10
1077.310966610177
 20
946.0665222556299
 10
1077.126600357178
 20
946.1243890076298
 10
1076.943572873178
 20
946.1756129391297
 10
1076.761628777178
 20
946.2202461061297
 10
1076.580543927677
 20
946.25831740413
 10
1076.400127665178
 20
946.2898373631301
 10
1076.220215257178
 20
946.3148049061301
 10
1076.040665645177
 20
946.3332122561295
 10
1075.861356630177
 20
946.3450496106296
  0
LINE
  5
1A72
330
24C
100
AcDbEntity
  8
ALL_ASSEM_MEMBER
  6
Continuous
 62
     7
100
AcDbLine
 10
553.7385043526783
 20
941.04504961063
 30
0.0
 11
553.7385043526783
 21
945.3450496106296
 31
0.0
  0
LINE
  5
1A74
330
24C
100
AcDbEntity
  8
ALL_ASSEM_MEMBER
  6
Continuous
 62
     7
100
AcDbLine
 10
557.7385043526779
 20
932.54504961063
 30
0.0
 11
557.7385043526779
 21
916.5450496106295
 31
0.0
  0
LINE
  5
1A76
330
24C
100
AcDbEntity
  8
ALL_ASSEM_MEMBER
  6
Continuous
 62
     7
100
AcDbLine
 10
560.2385043526778
 20
941.04504961063
 30
0.0
 11
560.2385043526778
 21
946.3450496106296
 31
0.0
  0
LINE
  5
1B49
330
24C
100
AcDbEntity
  8
ALL_ASSEM_MEMBER
  6
Continuous
 62
     7
100
AcDbLine
 10
1005.644708688678
 20
934.54504961063
 30
0.0
 11
1000.644708688678
 21
941.04504961063
 31
0.0
  0
LINE
  5
1B4E
330
24C
100
AcDbEntity
  8
ALL_ASSEM_MEMBER
  6
Continuous
 62
     7
100
AcDbLine
 10
688.7077025391781
 20
932.54504961063
 30
0.0
 11
688.7077025391781
 21
916.5450496106295
 31
0.0
  0
LINE
  5
1B58
330
24C
100
AcDbEntity
  8
ALL_ASSEM_MEMBER
  6
Continuous
 62
     7
100
AcDbLine
 10
696.7077025391771
 20
932.54504961063
 30
0.0
 11
696.7077025391771
 21
916.5450496106295
 31
0.0
  0
LINE
  5
1C3A
330
24C
100
AcDbEntity
  8
02__ASM_ALL_AXES
  6
CENTER
 62
     2
100
AcDbLine
 10
772.9416065206779
 20
894.54504961063
 30
0.0
 11
772.9416065206779
 21
1920.677260738767
 31
0.0
  0
LINE
  5
1CA1
330
24C
100
AcDbEntity
  8
ALL_ASSEM_MEMBER
  6
Continuous
 62
     7
100
AcDbLine
 10
1085.878612670178
 20
934.54504961063
 30
0.0
 11
1080.878612670178
 21
941.04504961063
 31
0.0
  0
LINE
  5
1CC3
330
24C
100
AcDbEntity
  8
ALL_ASSEM_MEMBER
  6
Continuous
 62
     7
100
AcDbLine
 10
460.0046003711777
 20
934.54504961063
 30
0.0
 11
465.0046003711777
 21
941.04504961063
 31
0.0
  0
LINE
  5
1CFD
330
24C
100
AcDbEntity
  8
ALL_ASSEM_MEMBER
  6
Continuous
 62
     7
100
AcDbLine
 10
849.1755105026778
 20
932.54504961063
 30
0.0
 11
849.1755105026778
 21
916.5450496106295
 31
0.0
  0
LINE
  5
1D05
330
24C
100
AcDbEntity
  8
ALL_ASSEM_MEMBER
  6
Continuous
 62
     7
100
AcDbLine
 10
857.1755105026778
 20
932.54504961063
 30
0.0
 11
857.1755105026778
 21
916.5450496106295
 31
0.0
  0
LINE
  5
1D4E
330
24C
100
AcDbEntity
  8
ALL_ASSEM_MEMBER
  6
Continuous
 62
     7
100
AcDbLine
 10
540.2385043526778
 20
934.54504961063
 30
0.0
 11
545.2385043526779
 21
941.04504961063
 31
0.0
  0
LINE
  5
1DBF
330
24C
100
AcDbEntity
  8
ALL_ASSEM_MEMBER
  6
Continuous
 62
     7
100
AcDbLine
 10
985.6447086886777
 20
941.04504961063
 30
0.0
 11
985.6447086886777
 21
946.3450496106296
 31
0.0
  0
LINE
  5
1DC1
330
24C
100
AcDbEntity
  8
ALL_ASSEM_MEMBER
  6
Continuous
 62
     7
100
AcDbLine
 10
988.1447086886778
 20
932.54504961063
 30
0.0
 11
988.1447086886778
 21
916.5450496106295
 31
0.0
  0
LINE
  5
1DC3
330
24C
100
AcDbEntity
  8
ALL_ASSEM_MEMBER
  6
Continuous
 62
     7
100
AcDbLine
 10
992.1447086886773
 20
941.04504961063
 30
0.0
 11
992.1447086886773
 21
945.3450496106296
 31
0.0
  0
LINE
  5
1DC7
330
24C
100
AcDbEntity
  8
ALL_ASSEM_MEMBER
  6
Continuous
 62
     7
100
AcDbLine
 10
996.1447086886778
 20
932.54504961063
 30
0.0
 11
996.1447086886778
 21
916.5450496106295
 31
0.0
  0
LINE
  5
1DC8
330
24C
100
AcDbEntity
  8
ALL_ASSEM_MEMBER
  6
Continuous
 62
     7
100
AcDbLine
 10
998.6447086886778
 20
941.04504961063
 30
0.0
 11
998.6447086886778
 21
946.3450496106296
 31
0.0
  0
LINE
  5
1E08
330
24C
100
AcDbEntity
  8
ALL_ASSEM_MEMBER
  6
Continuous
 62
     7
100
AcDbLine
 10
1065.878612670178
 20
941.04504961063
 30
0.0
 11
1065.878612670178
 21
946.3450496106296
 31
0.0
  0
LINE
  5
1E0A
330
24C
100
AcDbEntity
  8
ALL_ASSEM_MEMBER
  6
Continuous
 62
     7
100
AcDbLine
 10
1068.378612670178
 20
932.54504961063
 30
0.0
 11
1068.378612670178
 21
916.5450496106295
 31
0.0
  0
LINE
  5
1E0B
330
24C
100
AcDbEntity
  8
ALL_ASSEM_MEMBER
  6
Continuous
 62
     7
100
AcDbLine
 10
1072.378612670178
 20
941.04504961063
 30
0.0
 11
1072.378612670178
 21
945.3450496106296
 31
0.0
  0
LINE
  5
1E0D
330
24C
100
AcDbEntity
  8
ALL_ASSEM_MEMBER
  6
Continuous
 62
     7
100
AcDbLine
 10
1076.378612670178
 20
932.54504961063
 30
0.0
 11
1076.378612670178
 21
916.5450496106295
 31
0.0
  0
LINE
  5
1E11
330
24C
100
AcDbEntity
  8
ALL_ASSEM_MEMBER
  6
Continuous
 62
     7
100
AcDbLine
 10
1078.878612670178
 20
941.04504961063
 30
0.0
 11
1078.878612670178
 21
946.3450496106296
 31
0.0
  0
LINE
  5
1E39
330
24C
100
AcDbEntity
  8
ALL_ASSEM_MEMBER
  6
Continuous
 62
     7
100
AcDbLine
 10
560.4416065206779
 20
939.5450496106301
 30
0.0
 11
549.7296892486773
 21
935.2602827016298
 31
0.0
  0
LINE
  5
1E3A
330
24C
100
AcDbEntity
  8
ALL_ASSEM_MEMBER
  6
Continuous
 62
     7
100
AcDbLine
 10
561.1455878211772
 20
937.6725762076298
 30
0.0
 11
550.4724706011775
 21
933.4033293196298
 31
0.0
  0
LINE
  5
1E42
330
24C
100
AcDbEntity
  8
ALL_ASSEM_MEMBER
  6
Continuous
 62
     7
100
AcDbLine
 10
326.9416065206779
 20
1740.545049610628
 30
0.0
 11
1218.941606520678
 21
1740.54504961063
 31
0.0
  0
LINE
  5
1E6A
330
24C
100
AcDbEntity
  8
ALL_ASSEM_MEMBER
  6
Continuous
 62
     7
100
AcDbLine
 10
1193.941606520678
 20
934.54504961063
 30
0.0
 11
1193.941606520678
 21
979.5450496102311
 31
0.0
  0
LINE
  5
1E72
330
24C
100
AcDbEntity
  8
ALL_ASSEM_MEMBER
  6
Continuous
 62
     7
100
AcDbLine
 10
1218.941606520678
 20
1032.545049609846
 30
0.0
 11
1218.941606520678
 21
1747.54504961063
 31
0.0
  0
LINE
  5
1E75
330
24C
100
AcDbEntity
  8
ALL_ASSEM_MEMBER
  6
Continuous
 62
     7
100
AcDbLine
 10
983.170460185177
 20
940.4285265561297
 30
0.0
 11
983.6447086886778
 21
941.04504961063
 31
0.0
  0
LINE
  5
1E7B
330
24C
100
AcDbEntity
  8
ALL_ASSEM_MEMBER
  6
Continuous
 62
     7
100
AcDbLine
 10
1242.441606520678
 20
904.5450496106299
 30
0.0
 11
1242.441606520678
 21
929.5450496106299
 31
0.0
  0
LINE
  5
1E7C
330
24C
100
AcDbEntity
  8
ALL_ASSEM_MEMBER
  6
Continuous
 62
     7
100
AcDbLine
 10
1244.441606520678
 20
904.5450496106299
 30
0.0
 11
1244.441606520678
 21
929.5450496106299
 31
0.0
  0
LINE
  5
1E8C
330
24C
100
AcDbEntity
  8
ALL_ASSEM_MEMBER
  6
Continuous
 62
     7
100
AcDbLine
 10
411.9416065206787
 20
1894.769368253631
 30
0.0
 11
1133.658988652178
 21
1894.76936825363
 31
0.0
  0
LINE
  5
1E93
330
24C
100
AcDbEntity
  8
ALL_ASSEM_MEMBER
  6
Continuous
 62
     7
100
AcDbLine
 10
1058.878612670178
 20
934.54504961063
 30
0.0
 11
1063.878612670178
 21
941.04504961063
 31
0.0
  0
LINE
  5
1E9E
330
24C
100
AcDbEntity
  8
ALL_ASSEM_MEMBER
  6
Continuous
 62
     7
100
AcDbLine
 10
1218.941606520678
 20
1032.545049609846
 30
0.0
 11
1193.941606520678
 21
979.5450496102311
 31
0.0
  0
LINE
  5
1EA3
330
24C
100
AcDbEntity
  8
ALL_ASSEM_MEMBER
  6
Continuous
 62
     7
100
AcDbLine
 10
1218.941606520678
 20
1747.545049610274
 30
0.0
 11
1133.941606520678
 21
1894.76936825363
 31
0.0
  0
ARC
  5
349F
330
24C
100
AcDbEntity
  8
ALL_ASSEM_MEMBER
  6
Continuous
 62
     7
100
AcDbCircle
 10
306.4416065206774
 20
929.5450496106299
 30
0.0
 40
5.0
100
AcDbArc
 50
90.0
 51
180.0
  0
ARC
  5
34A3
330
24C
100
AcDbEntity
  8
ALL_ASSEM_MEMBER
  6
Continuous
 62
     7
100
AcDbCircle
 10
306.4416065206774
 20
929.5450496106299
 30
0.0
 40
3.0
100
AcDbArc
 50
90.0
 51
180.0
  0
ARC
  5
34B2
330
24C
100
AcDbEntity
  8
ALL_ASSEM_MEMBER
  6
Continuous
 62
     7
100
AcDbCircle
 10
545.5083474266776
 20
981.99499393113
 30
0.0
 40
47.0
100
AcDbArc
 50
289.4331767074998
 51
349.4663597395933
  0
ARC
  5
34B5
330
24C
100
AcDbEntity
  8
ALL_ASSEM_MEMBER
  6
Continuous
 62
     7
100
AcDbCircle
 10
545.5083474266776
 20
981.99499393113
 30
0.0
 40
45.0
100
AcDbArc
 50
289.3811137583044
 51
348.9924812950088
  0
ARC
  5
34B9
330
24C
100
AcDbEntity
  8
ALL_ASSEM_MEMBER
  6
Continuous
 62
     7
100
AcDbCircle
 10
546.0157824851775
 20
944.54504961063
 30
0.0
 40
12.0
100
AcDbArc
 50
270.0
 51
291.8014094864002
  0
ARC
  5
34BA
330
24C
100
AcDbEntity
  8
ALL_ASSEM_MEMBER
  6
Continuous
 62
     7
100
AcDbCircle
 10
546.0157824851775
 20
944.54504961063
 30
0.0
 40
10.0
100
AcDbArc
 50
270.0
 51
291.8014094864002
  0
ARC
  5
34EC
330
24C
100
AcDbEntity
  8
ALL_ASSEM_MEMBER
  6
Continuous
 62
     7
100
AcDbCircle
 10
1000.374865614678
 20
981.99499393113
 30
0.0
 40
47.0
100
AcDbArc
 50
190.5336402604066
 51
250.5668232925002
  0
ARC
  5
34EF
330
24C
100
AcDbEntity
  8
ALL_ASSEM_MEMBER
  6
Continuous
 62
     7
100
AcDbCircle
 10
1000.374865614678
 20
981.99499393113
 30
0.0
 40
45.0
100
AcDbArc
 50
191.0075187049912
 51
250.6188862416956
  0
ARC
  5
34F3
330
24C
100
AcDbEntity
  8
ALL_ASSEM_MEMBER
  6
Continuous
 62
     7
100
AcDbCircle
 10
999.8674305561776
 20
944.54504961063
 30
0.0
 40
12.0
100
AcDbArc
 50
248.1985905135998
 51
270.0
  0
ARC
  5
34F4
330
24C
100
AcDbEntity
  8
ALL_ASSEM_MEMBER
  6
Continuous
 62
     7
100
AcDbCircle
 10
999.8674305561776
 20
944.54504961063
 30
0.0
 40
10.0
100
AcDbArc
 50
248.1985905135998
 51
270.0
  0
ARC
  5
3505
330
24C
100
AcDbEntity
  8
ALL_ASSEM_MEMBER
  6
Continuous
 62
     7
100
AcDbCircle
 10
1239.441606520678
 20
929.5450496106299
 30
0.0
 40
5.0
100
AcDbArc
 50
0.0
 51
90.0
  0
ARC
  5
3509
330
24C
100
AcDbEntity
  8
ALL_ASSEM_MEMBER
  6
Continuous
 62
     7
100
AcDbCircle
 10
1239.441606520678
 20
929.5450496106299
 30
0.0
 40
3.0
100
AcDbArc
 50
0.0
 51
90.0
  0
LINE
  5
3999
330
24C
100
AcDbEntity
  8
0
100
AcDbLine
 10
849.1755105026778
 20
916.5450496106295
 30
0.0
 11
857.1755105026778
 21
916.5450496106295
 31
0.0
  0
LINE
  5
399D
330
24C
100
AcDbEntity
  8
ALL_ASSEM_MEMBER
  6
Continuous
 62
     7
100
AcDbLine
 10
351.9416065206779
 20
934.54504961063
 30
0.0
 11
351.9416065206783
 21
979.5450496102311
 31
0.0
  0
LINE
  5
399E
330
24C
100
AcDbEntity
  8
ALL_ASSEM_MEMBER
  6
Continuous
 62
     7
100
AcDbLine
 10
326.9416065206779
 20
1032.545049609846
 30
0.0
 11
326.9416065206779
 21
1747.54504961063
 31
0.0
  0
LINE
  5
39A0
330
24C
100
AcDbEntity
  8
ALL_ASSEM_MEMBER
  6
Continuous
 62
     7
100
AcDbLine
 10
326.9416065206779
 20
1032.545049609846
 30
0.0
 11
351.9416065206783
 21
979.5450496102311
 31
0.0
  0
LINE
  5
39A1
330
24C
100
AcDbEntity
  8
ALL_ASSEM_MEMBER
  6
Continuous
 62
     7
100
AcDbLine
 10
326.9416065206779
 20
1747.545049610274
 30
0.0
 11
411.9416065206778
 21
1894.76936825363
 31
0.0
  0
LINE
  5
39A2
330
24C
100
AcDbEntity
  8
0
100
AcDbLine
 10
326.9416065206779
 20
1032.545049609846
 30
0.0
 11
1218.941606520678
 21
1032.545049609846
 31
0.0
  0
LINE
  5
39A3
330
24C
100
AcDbEntity
  8
0
100
AcDbLine
 10
351.9416065206783
 20
979.5450496102311
 30
0.0
 11
1193.941606520678
 21
979.5450496102311
 31
0.0
  0
SPLINE
  5
39A6
330
24C
100
AcDbEntity
  8
0
100
AcDbSpline
210
0.0
220
0.0
230
1.0
 70
     8
 71
     3
 72
    19
 73
    15
 74
    13
 42
0.000000001
 43
0.0000000001
 44
0.0000000001
 40
0.0
 40
0.0
 40
0.0
 40
0.0
 40
111.318441164336
 40
174.2093447650969
 40
241.6592352416232
 40
243.6950829804377
 40
369.6826924633888
 40
513.0994000766357
 40
608.7729333795527
 40
610.772933379553
 40
716.9749533682634
 40
789.8916635767969
 40
851.7450208537847
 40
852.3664736600116
 40
852.3664736600116
 40
852.3664736600116
 40
852.3664736600116
 10
351.9416065206779
 20
934.54504961063
 30
0.0
 10
388.0208942792093
 20
944.6002403384236
 30
0.0
 10
444.4836781114609
 20
960.3362511004766
 30
0.0
 10
526.4712771026486
 20
951.0868096180955
 30
0.0
 10
567.8597713475979
 20
973.5070944312666
 30
0.0
 10
633.0616142515469
 20
973.2258594648657
 30
0.0
 10
722.5135389793375
 20
961.0882106597451
 30
0.0
 10
845.3434493922922
 20
944.8880948277572
 30
0.0
 10
923.6291593277366
 20
966.7583497355698
 30
0.0
 10
990.3017904270666
 20
980.1309250501781
 30
0.0
 10
1050.253799128237
 20
954.6556370395303
 30
0.0
 10
1132.644847288419
 20
971.8238536182284
 30
0.0
 10
1173.524381098308
 20
943.1133012687715
 30
0.0
 10
1194.355843478839
 20
943.1573749561494
 30
0.0
 10
1194.563059326905
 20
943.1578133683137
 30
0.0
 11
351.9416065206779
 21
934.54504961063
 31
0.0
 11
461.2578716551588
 21
955.5628877560152
 31
0.0
 11
524.1169841154097
 21
957.56232178337
 31
0.0
 11
589.6804435405797
 21
973.4027925307772
 31
0.0
 11
591.7162912793942
 21
973.4027925307772
 31
0.0
 11
717.1765632455476
 21
961.887676317408
 31
0.0
 11
860.3971956566621
 21
954.3908453613326
 31
0.0
 11
954.2629460755529
 21
972.9015415384855
 31
0.0
 11
956.2251554176437
 21
973.2884969594488
 31
0.0
 11
1061.958018438578
 21
963.3170012301812
 31
0.0
 11
1134.85044939643
 21
961.4354761333425
 31
0.0
 11
1193.941606520678
 21
943.1578133683137
 31
0.0
 11
1194.563059326905
 21
943.1578133683137
 31
0.0
  0
LINE
  5
39A8
330
24C
100
AcDbEntity
  8
0
100
AcDbLine
 10
588.2023577022773
 20
1032.545049609846
 30
0.0
 11
588.2023577022763
 21
1740.545049610629
 31
0.0
  0
LINE
  5
39AB
330
24C
100
AcDbEntity
  8
0
100
AcDbLine
 10
623.3277336467922
 20
1894.76936825363
 30
0.0
 11
588.2023577022773
 21
1740.545049610629
 31
0.0
  0
LINE
  5
39AE
330
24C
100
AcDbEntity
  8
0
100
AcDbLine
 10
588.2023577022773
 20
1032.545049609846
 30
0.0
 11
598.5576967616079
 21
979.5450496102311
 31
0.0
  0
LINE
  5
39AF
330
24C
100
AcDbEntity
  8
0
100
AcDbLine
 10
957.6808553390783
 20
1032.545049609846
 30
0.0
 11
957.6808553390792
 21
1740.545049610629
 31
0.0
  0
LINE
  5
39B0
330
24C
100
AcDbEntity
  8
0
100
AcDbLine
 10
922.5554793945635
 20
1894.76936825363
 30
0.0
 11
957.6808553390783
 21
1740.545049610629
 31
0.0
  0
LINE
  5
39B1
330
24C
100
AcDbEntity
  8
0
100
AcDbLine
 10
957.6808553390783
 20
1032.545049609846
 30
0.0
 11
947.3255162797476
 21
979.5450496102311
 31
0.0
  0
LINE
  5
39C1
330
24C
100
AcDbEntity
  8
ALL_ASSEM_MEMBER
  6
Continuous
 62
     7
100
AcDbLine
 10
301.4416065206774
 20
823.191866339404
 30
0.0
 11
1244.441606520678
 21
823.191866339404
 31
0.0
  0
LINE
  5
39C3
330
24C
100
AcDbEntity
  8
0
100
AcDbLine
 10
301.4416065206774
 20
823.191866339404
 30
0.0
 11
301.4416065206774
 21
-119.8081336605964
 31
0.0
  0
LINE
  5
39C4
330
24C
100
AcDbEntity
  8
ALL_ASSEM_MEMBER
  6
Continuous
 62
     7
100
AcDbLine
 10
301.4416065206774
 20
-119.8081336605964
 30
0.0
 11
1244.441606520678
 21
-119.8081336605964
 31
0.0
  0
LINE
  5
39C5
330
24C
100
AcDbEntity
  8
0
100
AcDbLine
 10
1244.441606520678
 20
823.191866339404
 30
0.0
 11
1244.441606520678
 21
-119.8081336605964
 31
0.0
  0
LINE
  5
39C6
330
24C
100
AcDbEntity
  8
02__ASM_ALL_AXES
  6
CENTER
 62
     2
100
AcDbLine
 10
772.9416065206779
 20
843.1918663394039
 30
0.0
 11
772.9416065206779
 21
-139.8081336605964
 31
0.0
  0
LINE
  5
39C7
330
24C
100
AcDbEntity
  8
02__ASM_ALL_AXES
  6
CENTER
 62
     2
100
AcDbLine
 10
281.4416065206774
 20
351.6918663394037
 30
0.0
 11
1264.441606520678
 21
351.6918663394037
 31
0.0
  0
LWPOLYLINE
  5
39C8
330
24C
100
AcDbEntity
  8
0
100
AcDbPolyline
 90
        8
 70
     1
 43
0.0
 10
326.9416065206779
 20
166.9526175210035
 10
588.2023577022773
 20
-94.30813366059624
 10
957.6808553390783
 20
-94.30813366059647
 10
1218.941606520678
 20
166.952617521003
 10
1218.941606520678
 20
536.4311151578034
 10
957.6808553390783
 20
797.6918663394035
 10
588.2023577022773
 20
797.6918663394039
 10
326.9416065206779
 20
536.4311151578034
  0
LWPOLYLINE
  5
39C9
330
24C
100
AcDbEntity
  8
0
100
AcDbPolyline
 90
        8
 70
     1
 43
0.0
 10
411.9416065206787
 20
202.1607703227171
 10
623.4105105039902
 20
-9.308133660595558
 10
922.472702537364
 20
-9.308133660596013
 10
1133.941606520677
 20
202.1607703227159
 10
1133.941606520678
 20
501.2229623560899
 10
922.4727025373654
 20
712.6918663394026
 10
623.4105105039916
 20
712.6918663394031
 10
411.9416065206787
 20
501.2229623560915
  0
LINE
  5
39CA
330
24C
100
AcDbEntity
  8
0
100
AcDbLine
 10
588.2023577022773
 20
797.6918663394039
 30
0.0
 11
623.4105105039916
 21
712.6918663394031
 31
0.0
  0
LINE
  5
39CB
330
24C
100
AcDbEntity
  8
0
100
AcDbLine
 10
326.9416065206779
 20
536.4311151578034
 30
0.0
 11
411.9416065206787
 21
501.2229623560915
 31
0.0
  0
LINE
  5
39CC
330
24C
100
AcDbEntity
  8
0
100
AcDbLine
 10
957.6808553390783
 20
797.6918663394039
 30
0.0
 11
922.472702537364
 21
712.6918663394031
 31
0.0
  0
LINE
  5
39CD
330
24C
100
AcDbEntity
  8
0
100
AcDbLine
 10
1218.941606520678
 20
536.4311151578034
 30
0.0
 11
1133.941606520677
 21
501.2229623560915
 31
0.0
  0
LINE
  5
39CE
330
24C
100
AcDbEntity
  8
0
100
AcDbLine
 10
588.2023577022773
 20
-94.30813366059647
 30
0.0
 11
623.4105105039916
 21
-9.308133660595558
 31
0.0
  0
LINE
  5
39CF
330
24C
100
AcDbEntity
  8
0
100
AcDbLine
 10
326.9416065206779
 20
166.9526175210039
 30
0.0
 11
411.9416065206787
 21
202.1607703227159
 31
0.0
  0
LINE
  5
39D0
330
24C
100
AcDbEntity
  8
0
100
AcDbLine
 10
957.6808553390783
 20
-94.30813366059647
 30
0.0
 11
922.472702537364
 21
-9.308133660595558
 31
0.0
  0
LINE
  5
39D1
330
24C
100
AcDbEntity
  8
0
100
AcDbLine
 10
1218.941606520678
 20
166.9526175210039
 30
0.0
 11
1133.941606520677
 21
202.1607703227159
 31
0.0
  0
CIRCLE
  5
3A9E
330
24C
100
AcDbEntity
  8
0
100
AcDbCircle
 10
772.9416065206779
 20
351.6918663394037
 30
0.0
 40
319.0
  0
CIRCLE
  5
3AA3
330
24C
100
AcDbEntity
  8
0
100
AcDbCircle
 10
397.9416065206779
 20
726.6918663394036
 30
0.0
 40
7.0
  0
CIRCLE
  5
3AA4
330
24C
100
AcDbEntity
  8
0
100
AcDbCircle
 10
1147.941606520678
 20
726.6918663394036
 30
0.0
 40
7.0
  0
CIRCLE
  5
3AA5
330
24C
100
AcDbEntity
  8
0
100
AcDbCircle
 10
397.9416065206779
 20
-23.30813366059624
 30
0.0
 40
7.0
  0
CIRCLE
  5
3AA6
330
24C
100
AcDbEntity
  8
0
100
AcDbCircle
 10
1147.941606520678
 20
-23.30813366059624
 30
0.0
 40
7.0
  0
LINE
  5
3AB4
330
24C
100
AcDbEntity
  8
ALL_ASSEM_MEMBER
  6
Continuous
 62
     7
100
AcDbLine
 10
1109.524434365424
 20
-69.74377524734228
 30
0.0
 11
1045.884824058878
 21
-6.104164940797133
 31
0.0
  0
LINE
  5
3AC8
330
24C
100
AcDbEntity
  8
ALL_ASSEM_MEMBER
  6
Continuous
 62
     7
100
AcDbLine
 10
1194.377248108451
 20
15.10903849463088
 30
0.0
 11
1130.737637801375
 21
78.7486488017002
 31
0.0
  0
LINE
  5
3AFB
330
24C
100
AcDbEntity
  8
ALL_ASSEM_MEMBER
  6
Continuous
 62
     7
100
AcDbLine
 10
1194.377248108451
 20
15.10903849463084
 30
0.0
 11
1109.524434365424
 21
-69.74377524734217
 31
0.0
  0
LINE
  5
3B05
330
24C
100
AcDbEntity
  8
ALL_ASSEM_MEMBER
  6
Continuous
 62
     7
100
AcDbLine
 10
301.4416065206774
 20
2940.410218849573
 30
0.0
 11
1244.441606520678
 21
2940.410218849573
 31
0.0
  0
LINE
  5
3B06
330
24C
100
AcDbEntity
  8
0
100
AcDbLine
 10
301.4416065206774
 20
2940.410218849573
 30
0.0
 11
301.4416065206774
 21
1997.410218849573
 31
0.0
  0
LINE
  5
3B07
330
24C
100
AcDbEntity
  8
ALL_ASSEM_MEMBER
  6
Continuous
 62
     7
100
AcDbLine
 10
301.4416065206774
 20
1997.410218849573
 30
0.0
 11
1244.441606520678
 21
1997.410218849573
 31
0.0
  0
LINE
  5
3B08
330
24C
100
AcDbEntity
  8
0
100
AcDbLine
 10
1244.441606520678
 20
2940.410218849573
 30
0.0
 11
1244.441606520678
 21
1997.410218849573
 31
0.0
  0
LINE
  5
3B09
330
24C
100
AcDbEntity
  8
02__ASM_ALL_AXES
  6
CENTER
 62
     2
100
AcDbLine
 10
772.9416065206779
 20
2960.410218849573
 30
0.0
 11
772.9416065206779
 21
1977.410218849573
 31
0.0
  0
LINE
  5
3B0A
330
24C
100
AcDbEntity
  8
02__ASM_ALL_AXES
  6
CENTER
 62
     2
100
AcDbLine
 10
281.4416065206774
 20
2468.910218849573
 30
0.0
 11
1264.441606520678
 21
2468.910218849573
 31
0.0
  0
CIRCLE
  5
3B0B
330
24C
100
AcDbEntity
  8
0
100
AcDbCircle
 10
397.9416065206779
 20
2843.910218849573
 30
0.0
 40
7.0
  0
CIRCLE
  5
3B0C
330
24C
100
AcDbEntity
  8
0
100
AcDbCircle
 10
1147.941606520678
 20
2843.910218849573
 30
0.0
 40
7.0
  0
CIRCLE
  5
3B0D
330
24C
100
AcDbEntity
  8
0
100
AcDbCircle
 10
397.9416065206779
 20
2093.910218849573
 30
0.0
 40
7.0
  0
CIRCLE
  5
3B0E
330
24C
100
AcDbEntity
  8
0
100
AcDbCircle
 10
1147.941606520678
 20
2093.910218849573
 30
0.0
 40
7.0
  0
CIRCLE
  5
3B1E
330
24C
100
AcDbEntity
  8
02__ASM_ALL_AXES
  6
CENTER
 62
     2
100
AcDbCircle
 10
772.9416065206779
 20
2468.910218849573
 30
0.0
 40
310.0
  0
INSERT
  5
3B2E
102
{ACAD_REACTORS
330
3B3B
102
}
330
24C
100
AcDbEntity
  8
0
100
AcDbBlockReference
  2
*U2
 10
0.0
 20
0.0
 30
0.0
  0
CIRCLE
  5
3B4B
330
24C
100
AcDbEntity
  8
0
100
AcDbCircle
 10
772.9416065206779
 20
2468.910218849573
 30
0.0
 40
226.9258240355002
  0
CIRCLE
  5
3B4D
330
24C
100
AcDbEntity
  8
0
100
AcDbCircle
 10
772.9416065206779
 20
2468.910218849573
 30
0.0
 40
181.2253152412843
  0
LINE
  5
3B4E
330
24C
100
AcDbEntity
  8
0
100
AcDbLine
 10
303.4416065206774
 20
2938.410218849573
 30
0.0
 11
303.4416065206774
 21
1999.410218849573
 31
0.0
  0
LINE
  5
3B4F
330
24C
100
AcDbEntity
  8
ALL_ASSEM_MEMBER
  6
Continuous
 62
     7
100
AcDbLine
 10
303.4416065206774
 20
1999.410218849573
 30
0.0
 11
1242.441606520678
 21
1999.410218849573
 31
0.0
  0
LINE
  5
3B50
330
24C
100
AcDbEntity
  8
0
100
AcDbLine
 10
1242.441606520678
 20
2938.410218849573
 30
0.0
 11
1242.441606520678
 21
1999.410218849573
 31
0.0
  0
LINE
  5
3B51
330
24C
100
AcDbEntity
  8
ALL_ASSEM_MEMBER
  6
Continuous
 62
     7
100
AcDbLine
 10
303.4416065206774
 20
2938.410218849573
 30
0.0
 11
1242.441606520678
 21
2938.410218849573
 31
0.0
  0
CIRCLE
  5
3D29
330
24C
100
AcDbEntity
  8
0
100
AcDbCircle
 10
772.9416065206776
 20
351.6918663394039
 30
0.0
 40
255.0
  0
CIRCLE
  5
3D2B
330
24C
100
AcDbEntity
  8
0
100
AcDbCircle
 10
772.9416065206779
 20
351.6918663394039
 30
0.0
 40
210.0
  0
LINE
  5
3D69
330
24C
100
AcDbEntity
  8
ALL_ASSEM_MEMBER
  6
Continuous
 62
     7
100
AcDbLine
 10
981.8339823886809
 20
346.6918663394037
 30
0.0
 11
944.0492306526821
 21
346.6918663394037
 31
0.0
  0
LINE
  5
3D6A
330
24C
100
AcDbEntity
  8
ALL_ASSEM_MEMBER
  6
Continuous
 62
     7
100
AcDbLine
 10
601.8339823886809
 20
346.6918663394038
 30
0.0
 11
564.0492306526821
 21
346.6918663394038
 31
0.0
  0
LINE
  5
3D6B
330
24C
100
AcDbEntity
  8
ALL_ASSEM_MEMBER
  6
Continuous
 62
     7
100
AcDbLine
 10
981.8339823886809
 20
356.6918663394037
 30
0.0
 11
944.0492306526821
 21
356.6918663394037
 31
0.0
  0
LINE
  5
3D6C
330
24C
100
AcDbEntity
  8
ALL_ASSEM_MEMBER
  6
Continuous
 62
     7
100
AcDbLine
 10
601.8339823886809
 20
356.6918663394038
 30
0.0
 11
564.0492306526821
 21
356.6918663394038
 31
0.0
  0
ARC
  5
3D6D
330
24C
100
AcDbEntity
  8
ALL_ASSEM_MEMBER
  6
Continuous
 62
     7
100
AcDbCircle
 10
582.9416065206779
 20
351.6918663394039
 30
0.0
 40
15.0
100
AcDbArc
 50
199.5261515299065
 51
340.4738484700928
  0
ARC
  5
3D6E
330
24C
100
AcDbEntity
  8
ALL_ASSEM_MEMBER
  6
Continuous
 62
     7
100
AcDbCircle
 10
582.9416065206779
 20
351.6918663394039
 30
0.0
 40
15.0
100
AcDbArc
 50
19.52615152990719
 51
160.4738484700935
  0
ARC
  5
3D6F
330
24C
100
AcDbEntity
  8
ALL_ASSEM_MEMBER
  6
Continuous
 62
     7
100
AcDbCircle
 10
582.9416065206779
 20
351.6918663394039
 30
0.0
 40
6.0
100
AcDbArc
 50
236.4505227781769
 51
303.5494768178077
  0
ARC
  5
3D70
330
24C
100
AcDbEntity
  8
ALL_ASSEM_MEMBER
  6
Continuous
 62
     7
100
AcDbCircle
 10
582.9416065206779
 20
351.6918663394039
 30
0.0
 40
6.0
100
AcDbArc
 50
56.45052277817685
 51
123.5494768178077
  0
ARC
  5
3D71
330
24C
100
AcDbEntity
  8
ALL_ASSEM_MEMBER
  6
Continuous
 62
     7
100
AcDbCircle
 10
582.9416065206779
 20
351.6918663394039
 30
0.0
 40
5.299999446
100
AcDbArc
 50
250.7510870533078
 51
289.2488688587903
  0
ARC
  5
3D72
330
24C
100
AcDbEntity
  8
ALL_ASSEM_MEMBER
  6
Continuous
 62
     7
100
AcDbCircle
 10
582.9416065206779
 20
351.6918663394039
 30
0.0
 40
5.299999446
100
AcDbArc
 50
70.75108705330783
 51
109.248868858793
  0
ARC
  5
3D73
330
24C
100
AcDbEntity
  8
ALL_ASSEM_MEMBER
  6
Continuous
 62
     7
100
AcDbCircle
 10
601.834050510678
 20
351.6918663394039
 30
0.0
 40
5.0
100
AcDbArc
 50
269.9999999789996
 51
90.00000002100042
  0
ARC
  5
3D74
330
24C
100
AcDbEntity
  8
ALL_ASSEM_MEMBER
  6
Continuous
 62
     7
100
AcDbCircle
 10
564.049162530685
 20
351.6918663394039
 30
0.0
 40
5.0
100
AcDbArc
 50
89.99999997899958
 51
270.0000000210004
  0
ARC
  5
3D75
330
24C
100
AcDbEntity
  8
ALL_ASSEM_MEMBER
  6
Continuous
 62
     7
100
AcDbCircle
 10
962.9416065206779
 20
351.6918663394037
 30
0.0
 40
15.0
100
AcDbArc
 50
199.5261515299072
 51
340.4738484700928
  0
ARC
  5
3D76
330
24C
100
AcDbEntity
  8
ALL_ASSEM_MEMBER
  6
Continuous
 62
     7
100
AcDbCircle
 10
962.9416065206779
 20
351.6918663394037
 30
0.0
 40
15.0
100
AcDbArc
 50
19.52615152990719
 51
160.4738484700928
  0
ARC
  5
3D77
330
24C
100
AcDbEntity
  8
ALL_ASSEM_MEMBER
  6
Continuous
 62
     7
100
AcDbCircle
 10
962.9416065206779
 20
351.6918663394037
 30
0.0
 40
6.0
100
AcDbArc
 50
56.45052277817685
 51
123.5494768178077
  0
ARC
  5
3D78
330
24C
100
AcDbEntity
  8
ALL_ASSEM_MEMBER
  6
Continuous
 62
     7
100
AcDbCircle
 10
962.9416065206779
 20
351.6918663394037
 30
0.0
 40
6.0
100
AcDbArc
 50
236.4505227781769
 51
303.5494768178077
  0
ARC
  5
3D79
330
24C
100
AcDbEntity
  8
ALL_ASSEM_MEMBER
  6
Continuous
 62
     7
100
AcDbCircle
 10
962.9416065206779
 20
351.6918663394037
 30
0.0
 40
5.299999446
100
AcDbArc
 50
70.75108705331034
 51
109.248868858793
  0
ARC
  5
3D7A
330
24C
100
AcDbEntity
  8
ALL_ASSEM_MEMBER
  6
Continuous
 62
     7
100
AcDbCircle
 10
962.9416065206779
 20
351.6918663394037
 30
0.0
 40
5.299999446
100
AcDbArc
 50
250.7510870533053
 51
289.2488688587878
  0
ARC
  5
3D7B
330
24C
100
AcDbEntity
  8
ALL_ASSEM_MEMBER
  6
Continuous
 62
     7
100
AcDbCircle
 10
981.834050510678
 20
351.6918663394037
 30
0.0
 40
5.0
100
AcDbArc
 50
269.9999999789996
 51
90.00000002100042
  0
ARC
  5
3D7C
330
24C
100
AcDbEntity
  8
ALL_ASSEM_MEMBER
  6
Continuous
 62
     7
100
AcDbCircle
 10
944.049162530685
 20
351.6918663394037
 30
0.0
 40
5.0
100
AcDbArc
 50
89.99999997899958
 51
270.0000000210004
  0
LINE
  5
3E95
330
24C
100
AcDbEntity
  8
0
100
AcDbLine
 10
1045.884824058878
 20
1231.767786051497
 30
0.0
 11
1194.377248108053
 21
1231.767786051497
 31
0.0
  0
LINE
  5
3E96
330
24C
100
AcDbEntity
  8
0
100
AcDbLine
 10
1045.884824058878
 20
1113.54504961063
 30
0.0
 11
1194.377248108053
 21
1113.54504961063
 31
0.0
  0
LINE
  5
3E97
330
24C
100
AcDbEntity
  8
0
100
AcDbLine
 10
1045.884824058878
 20
1113.54504961063
 30
0.0
 11
1045.884824058878
 21
1231.767786051497
 31
0.0
  0
LINE
  5
3E98
330
24C
100
AcDbEntity
  8
0
100
AcDbLine
 10
1109.524434365667
 20
1113.54504961063
 30
0.0
 11
1109.524434365667
 21
1231.767786051497
 31
0.0
  0
LINE
  5
3E99
330
24C
100
AcDbEntity
  8
0
100
AcDbLine
 10
1099.524434365667
 20
1113.54504961063
 30
0.0
 11
1099.524434365667
 21
1231.767786051497
 31
0.0
  0
LINE
  5
3E9A
330
24C
100
AcDbEntity
  8
0
100
AcDbLine
 10
1194.377248108053
 20
1113.54504961063
 30
0.0
 11
1194.377248108053
 21
1231.767786051497
 31
0.0
  0
VIEWPORT
  5
3C24
330
24D
100
AcDbEntity
 67
     1
  8
0
100
AcDbViewport
 10
297.0
 20
210.0
 30
0.0
 40
712.8
 41
504.0
 68
     1
 69
     1
 12
297.0
 22
210.0
 13
0.0
 23
0.0
 14
0.5
 24
0.5
 15
0.0
 25
0.0
 16
0.0
 26
0.0
 36
1.0
 17
0.0
 27
0.0
 37
0.0
 42
50.0
 43
0.0
 44
0.0
 45
504.0
 50
0.0
 51
0.0
 72
   100
 90
   557152
  1

281
     0
 71
     1
 74
     0
110
0.0
120
0.0
130
0.0
111
1.0
121
0.0
131
0.0
112
0.0
122
1.0
132
0.0
 79
     0
146
0.0
  0
VIEWPORT
  5
3C25
330
24D
100
AcDbEntity
 67
     1
  8
0
100
AcDbViewport
 10
239.4
 20
164.6823529411765
 30
0.0
 40
542.964705882353
 41
374.4
 68
     2
 69
     2
 12
97.31544984149666
 22
937.9606321727599
 13
0.0
 23
0.0
 14
0.5
 24
0.5
 15
0.0
 25
0.0
 16
0.0
 26
0.0
 36
1.0
 17
785.2410198572229
 27
543.0918221093721
 37
0.0
 42
50.0
 43
0.0
 44
0.0
 45
3523.619601795849
 50
0.0
 51
0.0
 72
   100
 90
   557168
  1

281
     0
 71
     1
 74
     0
110
0.0
120
0.0
130
0.0
111
1.0
121
0.0
131
0.0
112
0.0
122
1.0
132
0.0
 79
     0
146
0.0
  0
ENDSEC
  0
SECTION
  2
OBJECTS
  0
DICTIONARY
  5
C
330
0
100
AcDbDictionary
281
     1
  3
ACAD_ASSOCNETWORK
350
3B33
  3
ACAD_CIP_PREVIOUS_PRODUCT_INFO
350
3909
  3
ACAD_DETAILVIEWSTYLE
350
3906
  3
ACAD_GROUP
350
D
  3
ACAD_IMAGE_VARS
350
38C6
  3
ACAD_LAYOUT
350
1A
  3
ACAD_MATERIAL
350
3EC6
  3
ACAD_MLINESTYLE
350
17
  3
ACAD_PLOTSETTINGS
350
19
  3
ACAD_PLOTSTYLENAME
350
E
  3
ACAD_SCALELIST
350
3883
  3
ACAD_SECTIONVIEWSTYLE
350
3904
  3
AcDbVariableDictionary
350
3A87
  3
AcDsDecomposeData
350
3B6E
  3
APPDATA
350
38C4
  3
DWGPROPS
350
3EC5
  0
DICTIONARY
  5
3B58
330
2
100
AcDbDictionary
280
     1
281
     1
  3
ACAD_LAYERSTATES
360
3B59
  0
DICTIONARY
  5
39E8
330
10
100
AcDbDictionary
280
     1
281
     1
  3
ADSK_XREC_LAYER_RECONCILED
360
39E9
  0
DICTIONARY
  5
39FC
330
203
100
AcDbDictionary
280
     1
281
     1
  3
ADSK_XREC_LAYER_RECONCILED
360
39FD
  0
DICTIONARY
  5
3A2E
330
21C
100
AcDbDictionary
280
     1
281
     1
  3
ADSK_XREC_LAYER_RECONCILED
360
3A2F
  0
DICTIONARY
  5
3AA0
330
24C
100
AcDbDictionary
280
     1
281
     1
  3
ACAD_ASSOCNETWORK
360
3B31
  3
ACAD_SORTENTS
360
3AA1
  0
DICTIONARY
  5
3BAC
330
3B2B
100
AcDbDictionary
280
     1
281
     1
  3
AcDbBlockTableRecordData
360
3BAD
  0
DICTIONARY
  5
3B33
102
{ACAD_REACTORS
330
C
102
}
330
C
100
AcDbDictionary
281
     1
  3
ACAD_ASSOCNETWORK
350
3B34
  0
XRECORD
  5
3909
102
{ACAD_REACTORS
330
C
102
}
330
C
100
AcDbXrecord
280
     1
300
ACD
300
2015
300
ACD_F_S
  0
DICTIONARY
  5
3906
102
{ACAD_REACTORS
330
C
102
}
330
C
100
AcDbDictionary
281
     1
  3
Metric50
350
3907
  0
DICTIONARY
  5
D
102
{ACAD_REACTORS
330
C
102
}
330
C
100
AcDbDictionary
281
     1
  0
RASTERVARIABLES
  5
38C6
102
{ACAD_REACTORS
330
C
102
}
330
C
100
AcDbRasterVariables
 90
        0
 70
     1
 71
     1
 72
     1
  0
DICTIONARY
  5
1A
102
{ACAD_REACTORS
330
C
102
}
330
C
100
AcDbDictionary
281
     1
  3
Layout1
350
3881
  3
Model
350
3880
  0
DICTIONARY
  5
3EC6
102
{ACAD_REACTORS
330
C
102
}
330
C
100
AcDbDictionary
281
     1
  3
ByBlock
350
3EC8
  3
ByLayer
350
3EC7
  3
Global
350
3EC9
  0
DICTIONARY
  5
17
102
{ACAD_REACTORS
330
C
102
}
330
C
100
AcDbDictionary
281
     1
  3
Standard
350
18
  0
DICTIONARY
  5
19
102
{ACAD_REACTORS
330
C
102
}
330
C
100
AcDbDictionary
281
     1
  0
ACDBDICTIONARYWDFLT
  5
E
102
{ACAD_REACTORS
330
C
102
}
330
C
100
AcDbDictionary
281
     1
  3
Normal
350
F
100
AcDbDictionaryWithDefault
340
F
  0
DICTIONARY
  5
3883
102
{ACAD_REACTORS
330
C
102
}
330
C
100
AcDbDictionary
281
     1
  3
A0
350
3884
  3
A1
350
3885
  3
A2
350
3886
  3
A3
350
3887
  3
A4
350
3888
  3
A5
350
3889
  3
A6
350
388A
  3
A7
350
388B
  3
A8
350
388C
  3
A9
350
388D
  3
B0
350
388E
  3
B1
350
388F
  3
B2
350
3890
  3
B3
350
3891
  3
B4
350
3892
  3
B5
350
3893
  3
B6
350
3894
  3
B7
350
3895
  3
B8
350
3896
  3
B9
350
3897
  3
C0
350
3898
  3
C1
350
3899
  3
C2
350
389A
  3
C3
350
389B
  3
C4
350
389C
  3
C5
350
389D
  3
C6
350
389E
  3
C7
350
389F
  3
C8
350
38A0
  3
C9
350
38A1
  3
D0
350
38A2
  3
D1
350
38A3
  3
D2
350
38A4
  0
DICTIONARY
  5
3904
102
{ACAD_REACTORS
330
C
102
}
330
C
100
AcDbDictionary
281
     1
  3
Metric50
350
3905
  0
DICTIONARY
  5
3A87
102
{ACAD_REACTORS
330
C
102
}
330
C
100
AcDbDictionary
281
     1
  3
DIMASSOC
350
3B63
  3
INDEXCTL
350
3B62
  3
SORTENTS
350
3B61
  0
DICTIONARY
  5
3B6E
102
{ACAD_REACTORS
330
C
102
}
330
C
100
AcDbDictionary
281
     1
  3
AcDsRecords
350
3B70
  3
AcDsSchemas
350
3B6F
1001
ACAD
1070
     2
  0
DICTIONARY
  5
38C4
102
{ACAD_REACTORS
330
C
102
}
330
C
100
AcDbDictionary
281
     1
  0
XRECORD
  5
3EC5
102
{ACAD_REACTORS
330
C
102
}
330
C
100
AcDbXrecord
280
     1
  1
DWGPROPS COOKIE
  2

  3

  4

  6

  7

  8
d610igzo
  9

300
=
301
=
302
=
303
=
304
=
305
=
306
=
307
=
308
=
309
=
 40
0.0
 41
2457071.019560521
 42
2457072.621848796
  1

 90
        0
  0
DICTIONARY
  5
3B59
102
{ACAD_REACTORS
330
3B58
102
}
330
3B58
100
AcDbDictionary
281
     1
  0
XRECORD
  5
39E9
102
{ACAD_REACTORS
330
39E8
102
}
330
39E8
100
AcDbXrecord
280
     1
290
     1
  0
XRECORD
  5
39FD
102
{ACAD_REACTORS
330
39FC
102
}
330
39FC
100
AcDbXrecord
280
     1
290
     1
  0
XRECORD
  5
3A2F
102
{ACAD_REACTORS
330
3A2E
102
}
330
3A2E
100
AcDbXrecord
280
     1
290
     1
  0
DICTIONARY
  5
3B31
102
{ACAD_REACTORS
330
3AA0
102
}
330
3AA0
100
AcDbDictionary
281
     1
  3
ACAD_ASSOCNETWORK
350
3B32
  0
SORTENTSTABLE
  5
3AA1
102
{ACAD_REACTORS
330
3AA0
102
}
330
3AA0
100
AcDbSortentsTable
330
24C
331
487
  5
487
331
498
  5
498
331
49A
  5
49A
331
4BA
  5
4BA
331
4C3
  5
4C3
331
4C4
  5
4C4
331
4C6
  5
4C6
331
4DA
  5
4DA
331
F03
  5
F03
331
F04
  5
F04
331
F05
  5
F05
331
F06
  5
F06
331
F07
  5
F07
331
F08
  5
F08
331
F09
  5
F09
331
F0A
  5
F0A
331
F0B
  5
F0B
331
F0D
  5
F0D
331
F0E
  5
F0E
331
F0F
  5
F0F
331
F10
  5
F10
331
F11
  5
F11
331
F12
  5
F12
331
F13
  5
F13
331
F14
  5
F14
331
F15
  5
F15
331
F16
  5
F16
331
F17
  5
F17
331
F18
  5
F18
331
F19
  5
F19
331
F1A
  5
F1A
331
F1B
  5
F1B
331
F1C
  5
F1C
331
F1D
  5
F1D
331
F47
  5
F47
331
F56
  5
F56
331
F57
  5
F57
331
F58
  5
F58
331
F59
  5
F59
331
FCC
  5
FCC
331
FCE
  5
FCE
331
FD0
  5
FD0
331
1080
  5
1080
331
1081
  5
1081
331
1082
  5
1082
331
1083
  5
1083
331
1084
  5
1084
331
1085
  5
1085
331
1198
  5
1198
331
1266
  5
1266
331
12F9
  5
12F9
331
12FA
  5
12FA
331
1313
  5
1313
331
1314
  5
1314
331
1315
  5
1315
331
1316
  5
1316
331
1317
  5
1317
331
1318
  5
1318
331
1319
  5
1319
331
131A
  5
131A
331
131B
  5
131B
331
131C
  5
131C
331
131D
  5
131D
331
131E
  5
131E
331
133B
  5
133B
331
133C
  5
133C
331
133D
  5
133D
331
133E
  5
133E
331
133F
  5
133F
331
1340
  5
1340
331
1341
  5
1341
331
1342
  5
1342
331
1343
  5
1343
331
1344
  5
1344
331
1345
  5
1345
331
1409
  5
1409
331
140A
  5
140A
331
140B
  5
140B
331
140C
  5
140C
331
140D
  5
140D
331
140E
  5
140E
331
1427
  5
1427
331
1428
  5
1428
331
1429
  5
1429
331
142A
  5
142A
331
142B
  5
142B
331
142C
  5
142C
331
142D
  5
142D
331
142E
  5
142E
331
142F
  5
142F
331
1430
  5
1430
331
148F
  5
148F
331
1490
  5
1490
331
1491
  5
1491
331
14C4
  5
14C4
331
14C5
  5
14C5
331
14C7
  5
14C7
331
154D
  5
154D
331
16D4
  5
16D4
331
1778
  5
1778
331
1779
  5
1779
331
177A
  5
177A
331
177B
  5
177B
331
177D
  5
177D
331
177E
  5
177E
331
1781
  5
1781
331
1866
  5
1866
331
1867
  5
1867
331
188A
  5
188A
331
18BD
  5
18BD
331
18CC
  5
18CC
331
18CF
  5
18CF
331
18D0
  5
18D0
331
18D6
  5
18D6
331
18D8
  5
18D8
331
18D9
  5
18D9
331
18E1
  5
18E1
331
18E2
  5
18E2
331
18E3
  5
18E3
331
18E4
  5
18E4
331
18E5
  5
18E5
331
18EC
  5
18EC
331
18ED
  5
18ED
331
18EE
  5
18EE
331
18F0
  5
18F0
331
18F1
  5
18F1
331
18FA
  5
18FA
331
18FB
  5
18FB
331
18FE
  5
18FE
331
190C
  5
190C
331
190D
  5
190D
331
190E
  5
190E
331
190F
  5
190F
331
1916
  5
1916
331
1917
  5
1917
331
1918
  5
1918
331
1919
  5
1919
331
193B
  5
193B
331
193C
  5
193C
331
193D
  5
193D
331
193E
  5
193E
331
198E
  5
198E
331
19E2
  5
19E2
331
19E3
  5
19E3
331
19ED
  5
19ED
331
19F3
  5
19F3
331
19F5
  5
19F5
331
19F6
  5
19F6
331
19F8
  5
19F8
331
1A33
  5
1A33
331
1A34
  5
1A34
331
1A46
  5
1A46
331
1A47
  5
1A47
331
1A66
  5
1A66
331
1A67
  5
1A67
331
1A72
  5
1A72
331
1A74
  5
1A74
331
1A76
  5
1A76
331
1B49
  5
1B49
331
1B4E
  5
1B4E
331
1B58
  5
1B58
331
1C3A
  5
1C3A
331
1CA1
  5
1CA1
331
1CC3
  5
1CC3
331
1CFD
  5
1CFD
331
1D05
  5
1D05
331
1D4E
  5
1D4E
331
1DBF
  5
1DBF
331
1DC1
  5
1DC1
331
1DC3
  5
1DC3
331
1DC7
  5
1DC7
331
1DC8
  5
1DC8
331
1E08
  5
1E08
331
1E0A
  5
1E0A
331
1E0B
  5
1E0B
331
1E0D
  5
1E0D
331
1E11
  5
1E11
331
1E39
  5
1E39
331
1E3A
  5
1E3A
331
1E42
  5
1E42
331
1E6A
  5
1E6A
331
1E72
  5
1E72
331
1E75
  5
1E75
331
1E7B
  5
1E7B
331
1E7C
  5
1E7C
331
1E8C
  5
1E8C
331
1E93
  5
1E93
331
1E9E
  5
1E9E
331
1EA3
  5
1EA3
331
349F
  5
349F
331
34A3
  5
34A3
331
34B2
  5
34B2
331
34B5
  5
34B5
331
34B9
  5
34B9
331
34BA
  5
34BA
331
34EC
  5
34EC
331
34EF
  5
34EF
331
34F3
  5
34F3
331
34F4
  5
34F4
331
3505
  5
3505
331
3509
  5
3509
331
3999
  5
3999
331
399D
  5
399D
331
399E
  5
399E
331
39A0
  5
39A0
331
39A1
  5
39A1
331
39A2
  5
39A2
331
39A3
  5
39A3
331
39A6
  5
39A6
331
39A8
  5
39A8
331
39AB
  5
39AB
331
39AE
  5
39AE
331
39AF
  5
39AF
331
39B0
  5
39B0
331
39B1
  5
39B1
331
39C1
  5
39C1
331
39C3
  5
39C3
331
39C4
  5
39C4
331
39C5
  5
39C5
331
39C6
  5
39C6
331
39C7
  5
39C8
331
39C8
  5
39CA
331
39C9
  5
39CB
331
39CA
  5
39CC
331
39CB
  5
39CD
331
39CC
  5
39CE
331
39CD
  5
39CF
331
39CE
  5
39D0
331
39CF
  5
39D1
331
39D0
  5
3A9D
331
39D1
  5
3A9E
331
0
  5
3A9F
331
3A9E
  5
3AA2
331
3AA3
  5
3AA3
331
3AA4
  5
3AA4
331
3AA5
  5
3AA5
331
3AA6
  5
3AA6
331
0
  5
3AAA
331
0
  5
3AB0
331
0
  5
3AB1
331
0
  5
3AB2
331
0
  5
3AB3
331
3AB4
  5
3AB4
331
0
  5
3AB6
331
0
  5
3AB7
331
0
  5
3AB8
331
0
  5
3AB9
331
0
  5
3ABA
331
0
  5
3ABB
331
0
  5
3ABC
331
0
  5
3ABD
331
0
  5
3ABE
331
0
  5
3ABF
331
0
  5
3AC0
331
0
  5
3AC1
331
0
  5
3AC2
331
0
  5
3AC3
331
0
  5
3AC4
331
0
  5
3AC5
331
3AC8
  5
3AC8
331
0
  5
3AC9
331
0
  5
3ACA
331
0
  5
3ACB
331
0
  5
3ACC
331
0
  5
3ACD
331
0
  5
3ACE
331
0
  5
3AD7
331
0
  5
3ADA
331
0
  5
3ADD
331
0
  5
3ADE
331
0
  5
3ADF
331
0
  5
3AE0
331
0
  5
3AE1
331
0
  5
3AE2
331
0
  5
3AE3
331
0
  5
3AE4
331
0
  5
3AE5
331
0
  5
3AE6
331
0
  5
3AE7
331
0
  5
3AE8
331
0
  5
3AE9
331
0
  5
3AEA
331
0
  5
3AEB
331
0
  5
3AEC
331
0
  5
3AED
331
0
  5
3AEE
331
0
  5
3AEF
331
0
  5
3AF0
331
0
  5
3AF1
331
0
  5
3AF2
331
0
  5
3AF3
331
0
  5
3AF4
331
0
  5
3AF5
331
0
  5
3AF6
331
0
  5
3AF7
331
0
  5
3AF8
331
0
  5
3AF9
331
3AFB
  5
3AFB
331
0
  5
3AFC
331
0
  5
3AFD
331
0
  5
3AFF
331
0
  5
3B00
331
0
  5
3B01
331
0
  5
3B02
331
0
  5
3B04
331
3B05
  5
3B05
331
3B06
  5
3B07
331
3B07
  5
3B09
331
3B08
  5
3B0B
331
3B09
  5
3B0D
331
3B0A
  5
3B0E
331
3B0B
  5
3B1E
331
3B0C
  5
3B2E
331
3B0D
  5
3B4B
331
3B0E
  5
3B4D
331
3B1E
  5
3B4E
331
3B2E
  5
3B4F
331
3B4B
  5
3B50
331
3B4D
  5
3B51
331
3B4E
  5
3B08
331
3B4F
  5
3B0A
331
3B50
  5
3B0C
331
3B51
  5
3B06
  0
DICTIONARY
  5
3BAD
102
{ACAD_REACTORS
330
3BAC
102
}
330
3BAC
100
AcDbDictionary
280
     1
281
     1
  0
ACDBASSOCNETWORK
  5
3B34
102
{ACAD_REACTORS
330
3B33
102
}
330
3B33
100
AcDbAssocAction
 90
        1
 90
        1
330
0
360
0
 90
        0
 90
        0
 90
        0
100
AcDbAssocNetwork
 90
        0
 90
        1
 90
        1
330
3B32
 90
        1
330
3B32
  0
ACDBDETAILVIEWSTYLE
  5
3907
102
{ACAD_REACTORS
330
3906
102
}
102
{ACAD_XDICTIONARY
360
3A84
102
}
330
3906
100
AcDbModelDocViewStyle
 70
     0
  3
Metric50
290
     0
100
AcDbDetailViewStyle
 70
     0
 71
     0
 90
        3
 71
     1
340
11
 40
5.0
340
0
 40
5.0
300

 40
0.0
280
     1
 71
     2
340
16
 90
       25
 71
     3
340
11
 40
5.0
 90
        0
 40
15.0
 90
        1
300
%<\AcVar ViewDetailId>% (%<\AcVar ViewScale \f "%sn">%)
 71
     4
340
16
 90
       25
340
16
 90
       25
280
     0
  0
LAYOUT
  5
3881
102
{ACAD_REACTORS
330
1A
102
}
330
1A
100
AcDbPlotSettings
  1

  2
none_device
  4
ISO_A2_(594.00_x_420.00_MM)
  6

 40
0.0
 41
0.0
 42
0.0
 43
0.0
 44
594.0
 45
420.0
 46
0.0
 47
0.0
 48
0.0
 49
0.0
140
0.0
141
0.0
142
1.0
143
1.0
 70
     0
 72
     1
 73
     0
 74
     0
  7

 75
     0
147
1.0
148
59.39999999999998
149
42.0
100
AcDbLayout
  1
Layout1
 70
     1
 71
     1
 10
-59.39999999999998
 20
-42.0
 11
534.6
 21
378.0
 12
0.0
 22
0.0
 32
0.0
 14
1.000000000000000E+20
 24
1.000000000000000E+20
 34
1.000000000000000E+20
 15
-1.000000000000000E+20
 25
-1.000000000000000E+20
 35
-1.000000000000000E+20
146
0.0
 13
0.0
 23
0.0
 33
0.0
 16
1.0
 26
0.0
 36
0.0
 17
0.0
 27
1.0
 37
0.0
 76
     0
330
24D
331
3C24
  0
LAYOUT
  5
3880
102
{ACAD_REACTORS
330
1A
102
}
330
1A
100
AcDbPlotSettings
  1

  2
none_device
  4
ISO_A2_(594.00_x_420.00_MM)
  6

 40
0.0
 41
0.0
 42
0.0
 43
0.0
 44
594.0
 45
420.0
 46
0.0
 47
0.0
 48
0.0
 49
0.0
140
0.0
141
0.0
142
1.0
143
1.0
 70
  1024
 72
     1
 73
     0
 74
     0
  7

 75
     0
147
1.0
148
0.0
149
0.0
100
AcDbLayout
  1
Model
 70
     0
 71
     0
 10
200.3325748355737
 20
-234.4170215128838
 11
1395.099240876594
 21
3029.498619236047
 12
0.0
 22
0.0
 32
0.0
 14
281.4416065206774
 24
-139.8081336605964
 34
0.0
 15
1264.441606520678
 25
2960.410218849573
 35
0.0
146
0.0
 13
0.0
 23
0.0
 33
0.0
 16
1.0
 26
0.0
 36
0.0
 17
0.0
 27
1.0
 37
0.0
 76
     0
330
24C
331
1F4
  0
MATERIAL
  5
3EC8
102
{ACAD_REACTORS
330
3EC6
102
}
330
3EC6
100
AcDbMaterial
  1
ByBlock
  0
MATERIAL
  5
3EC7
102
{ACAD_REACTORS
330
3EC6
102
}
330
3EC6
100
AcDbMaterial
  1
ByLayer
  0
MATERIAL
  5
3EC9
102
{ACAD_REACTORS
330
3EC6
102
}
330
3EC6
100
AcDbMaterial
  1
Global
  0
MLINESTYLE
  5
18
102
{ACAD_REACTORS
330
17
102
}
330
17
100
AcDbMlineStyle
  2
STANDARD
 70
     0
  3

 62
   256
 51
90.0
 52
90.0
 71
     2
 49
0.5
 62
   256
  6
BYLAYER
 49
-0.5
 62
   256
  6
BYLAYER
  0
ACDBPLACEHOLDER
  5
F
102
{ACAD_REACTORS
330
E
102
}
330
E
  0
SCALE
  5
3884
102
{ACAD_REACTORS
330
3883
102
}
330
3883
100
AcDbScale
 70
     0
300
1:1
140
1.0
141
1.0
290
     1
  0
SCALE
  5
3885
102
{ACAD_REACTORS
330
3883
102
}
330
3883
100
AcDbScale
 70
     0
300
1:2
140
1.0
141
2.0
290
     0
  0
SCALE
  5
3886
102
{ACAD_REACTORS
330
3883
102
}
330
3883
100
AcDbScale
 70
     0
300
1:4
140
1.0
141
4.0
290
     0
  0
SCALE
  5
3887
102
{ACAD_REACTORS
330
3883
102
}
330
3883
100
AcDbScale
 70
     0
300
1:5
140
1.0
141
5.0
290
     0
  0
SCALE
  5
3888
102
{ACAD_REACTORS
330
3883
102
}
330
3883
100
AcDbScale
 70
     0
300
1:8
140
1.0
141
8.0
290
     0
  0
SCALE
  5
3889
102
{ACAD_REACTORS
330
3883
102
}
330
3883
100
AcDbScale
 70
     0
300
1:10
140
1.0
141
10.0
290
     0
  0
SCALE
  5
388A
102
{ACAD_REACTORS
330
3883
102
}
330
3883
100
AcDbScale
 70
     0
300
1:16
140
1.0
141
16.0
290
     0
  0
SCALE
  5
388B
102
{ACAD_REACTORS
330
3883
102
}
330
3883
100
AcDbScale
 70
     0
300
1:20
140
1.0
141
20.0
290
     0
  0
SCALE
  5
388C
102
{ACAD_REACTORS
330
3883
102
}
330
3883
100
AcDbScale
 70
     0
300
1:30
140
1.0
141
30.0
290
     0
  0
SCALE
  5
388D
102
{ACAD_REACTORS
330
3883
102
}
330
3883
100
AcDbScale
 70
     0
300
1:40
140
1.0
141
40.0
290
     0
  0
SCALE
  5
388E
102
{ACAD_REACTORS
330
3883
102
}
330
3883
100
AcDbScale
 70
     0
300
1:50
140
1.0
141
50.0
290
     0
  0
SCALE
  5
388F
102
{ACAD_REACTORS
330
3883
102
}
330
3883
100
AcDbScale
 70
     0
300
1:100
140
1.0
141
100.0
290
     0
  0
SCALE
  5
3890
102
{ACAD_REACTORS
330
3883
102
}
330
3883
100
AcDbScale
 70
     0
300
2:1
140
2.0
141
1.0
290
     0
  0
SCALE
  5
3891
102
{ACAD_REACTORS
330
3883
102
}
330
3883
100
AcDbScale
 70
     0
300
4:1
140
4.0
141
1.0
290
     0
  0
SCALE
  5
3892
102
{ACAD_REACTORS
330
3883
102
}
330
3883
100
AcDbScale
 70
     0
300
8:1
140
8.0
141
1.0
290
     0
  0
SCALE
  5
3893
102
{ACAD_REACTORS
330
3883
102
}
330
3883
100
AcDbScale
 70
     0
300
10:1
140
10.0
141
1.0
290
     0
  0
SCALE
  5
3894
102
{ACAD_REACTORS
330
3883
102
}
330
3883
100
AcDbScale
 70
     0
300
100:1
140
100.0
141
1.0
290
     0
  0
SCALE
  5
3895
102
{ACAD_REACTORS
330
3883
102
}
330
3883
100
AcDbScale
 70
     0
300
1/128" = 1'-0"
140
0.0078125
141
12.0
290
     0
  0
SCALE
  5
3896
102
{ACAD_REACTORS
330
3883
102
}
330
3883
100
AcDbScale
 70
     0
300
1/64" = 1'-0"
140
0.015625
141
12.0
290
     0
  0
SCALE
  5
3897
102
{ACAD_REACTORS
330
3883
102
}
330
3883
100
AcDbScale
 70
     0
300
1/32" = 1'-0"
140
0.03125
141
12.0
290
     0
  0
SCALE
  5
3898
102
{ACAD_REACTORS
330
3883
102
}
330
3883
100
AcDbScale
 70
     0
300
1/16" = 1'-0"
140
0.0625
141
12.0
290
     0
  0
SCALE
  5
3899
102
{ACAD_REACTORS
330
3883
102
}
330
3883
100
AcDbScale
 70
     0
300
3/32" = 1'-0"
140
0.09375
141
12.0
290
     0
  0
SCALE
  5
389A
102
{ACAD_REACTORS
330
3883
102
}
330
3883
100
AcDbScale
 70
     0
300
1/8" = 1'-0"
140
0.125
141
12.0
290
     0
  0
SCALE
  5
389B
102
{ACAD_REACTORS
330
3883
102
}
330
3883
100
AcDbScale
 70
     0
300
3/16" = 1'-0"
140
0.1875
141
12.0
290
     0
  0
SCALE
  5
389C
102
{ACAD_REACTORS
330
3883
102
}
330
3883
100
AcDbScale
 70
     0
300
1/4" = 1'-0"
140
0.25
141
12.0
290
     0
  0
SCALE
  5
389D
102
{ACAD_REACTORS
330
3883
102
}
330
3883
100
AcDbScale
 70
     0
300
3/8" = 1'-0"
140
0.375
141
12.0
290
     0
  0
SCALE
  5
389E
102
{ACAD_REACTORS
330
3883
102
}
330
3883
100
AcDbScale
 70
     0
300
1/2" = 1'-0"
140
0.5
141
12.0
290
     0
  0
SCALE
  5
389F
102
{ACAD_REACTORS
330
3883
102
}
330
3883
100
AcDbScale
 70
     0
300
3/4" = 1'-0"
140
0.75
141
12.0
290
     0
  0
SCALE
  5
38A0
102
{ACAD_REACTORS
330
3883
102
}
330
3883
100
AcDbScale
 70
     0
300
1" = 1'-0"
140
1.0
141
12.0
290
     0
  0
SCALE
  5
38A1
102
{ACAD_REACTORS
330
3883
102
}
330
3883
100
AcDbScale
 70
     0
300
1-1/2" = 1'-0"
140
1.5
141
12.0
290
     0
  0
SCALE
  5
38A2
102
{ACAD_REACTORS
330
3883
102
}
330
3883
100
AcDbScale
 70
     0
300
3" = 1'-0"
140
3.0
141
12.0
290
     0
  0
SCALE
  5
38A3
102
{ACAD_REACTORS
330
3883
102
}
330
3883
100
AcDbScale
 70
     0
300
6" = 1'-0"
140
6.0
141
12.0
290
     0
  0
SCALE
  5
38A4
102
{ACAD_REACTORS
330
3883
102
}
330
3883
100
AcDbScale
 70
     0
300
1'-0" = 1'-0"
140
12.0
141
12.0
290
     0
  0
ACDBSECTIONVIEWSTYLE
  5
3905
102
{ACAD_REACTORS
330
3904
102
}
102
{ACAD_XDICTIONARY
360
3A82
102
}
330
3904
100
AcDbModelDocViewStyle
 70
     0
  3
Metric50
290
     0
100
AcDbSectionViewStyle
 70
     0
 71
     0
 90
      102
 71
     1
340
11
 40
5.0
340
0
340
0
 40
5.0
300
I, O, Q, S, X, Z
 40
10.0
 90
        0
 40
2.5
 90
        0
 71
     2
340
16
 90
       25
340
16
 90
       50
 40
5.0
 40
2.5
 40
5.0
 71
     3
340
11
 40
5.0
 90
        0
 40
15.0
 90
        1
300
%<\AcVar ViewSectionStartId>%-%<\AcVar ViewSectionEndId>% (%<\AcVar ViewScale \f "%sn">%)
 71
     4
300
ANSI31
 40
1.0
 90
        0
290
     0
290
     0
 90
        6
 40
0.0
 40
1.570796326794896
 40
0.2617993877991494
 40
1.308996938995747
 40
-0.2617993877991494
 40
1.832595714594046
  0
DICTIONARYVAR
  5
3B63
102
{ACAD_REACTORS
330
3A87
102
}
330
3A87
100
DictionaryVariables
280
     0
  1
1
  0
DICTIONARYVAR
  5
3B62
102
{ACAD_REACTORS
330
3A87
102
}
330
3A87
100
DictionaryVariables
280
     0
  1
0
  0
DICTIONARYVAR
  5
3B61
102
{ACAD_REACTORS
330
3A87
102
}
330
3A87
100
DictionaryVariables
280
     0
  1
127
  0
DICTIONARY
  5
3B70
102
{ACAD_REACTORS
330
3B6E
102
}
330
3B6E
100
AcDbDictionary
281
     1
  0
DICTIONARY
  5
3B6F
102
{ACAD_REACTORS
330
3B6E
102
}
330
3B6E
100
AcDbDictionary
281
     1
  3
140697145666704
350
3B69
  3
140697145666720
350
3B6A
  3
140697145666736
350
3B6B
  3
140697145666752
350
3B6C
  3
140697145666768
350
3B6D
  0
ACDBASSOCNETWORK
  5
3B32
102
{ACAD_REACTORS
330
3B31
102
}
330
3B31
100
AcDbAssocAction
 90
        1
 90
        1
330
3B34
360
0
 90
        1
 90
        0
 90
        0
100
AcDbAssocNetwork
 90
        0
 90
        1
 90
        1
360
3B35
 90
        1
330
3B35
  0
DICTIONARY
  5
3A84
330
3907
100
AcDbDictionary
280
     1
281
     1
  3
ACAD_XREC_ROUNDTRIP
360
3BAB
  0
DICTIONARY
  5
3A82
330
3905
100
AcDbDictionary
280
     1
281
     1
  3
ACAD_XREC_ROUNDTRIP
360
3BAA
  0
XRECORD
  5
3B69
102
{ACAD_REACTORS
330
3B6F
102
}
330
3B6F
100
AcDbXrecord
280
     1
  1
AcDb_Thumbnail_Schema
102
{ATTRRECORD
341
3B6A
  2
AcDbDs::TreatedAsObjectData
280
     1
291
     1
102
ATTRRECORD}
102
{ATTRRECORD
341
3B6B
  2
AcDbDs::Legacy
280
     1
291
     1
102
ATTRRECORD}
  2
AcDbDs::ID
280
    10
 91
        8
102
{ATTRRECORD
341
3B6C
  2
AcDs:Indexable
280
     1
291
     1
102
ATTRRECORD}
102
{ATTRRECORD
341
3B6D
  2
AcDbDs::HandleAttribute
280
     7
282
     1
102
ATTRRECORD}
  2
Thumbnail_Data
280
    15
 91
        0
  0
XRECORD
  5
3B6A
102
{ACAD_REACTORS
330
3B6F
102
}
330
3B6F
100
AcDbXrecord
280
     1
  1
AcDbDs::TreatedAsObjectDataSchema
  2
AcDbDs::TreatedAsObjectData
280
     1
 91
        0
  0
XRECORD
  5
3B6B
102
{ACAD_REACTORS
330
3B6F
102
}
330
3B6F
100
AcDbXrecord
280
     1
  1
AcDbDs::LegacySchema
  2
AcDbDs::Legacy
280
     1
 91
        0
  0
XRECORD
  5
3B6C
102
{ACAD_REACTORS
330
3B6F
102
}
330
3B6F
100
AcDbXrecord
280
     1
  1
AcDbDs::IndexedPropertySchema
  2
AcDs:Indexable
280
     1
 91
        0
  0
XRECORD
  5
3B6D
102
{ACAD_REACTORS
330
3B6F
102
}
330
3B6F
100
AcDbXrecord
280
     1
  1
AcDbDs::HandleAttributeSchema
  2
AcDbDs::HandleAttribute
280
     7
 91
        1
284
     1
  0
ACDBASSOCACTION
  5
3B35
330
3B32
100
AcDbAssocAction
 90
        1
 90
        1
330
3B32
360
3B36
 90
        1
 90
        3
 90
        3
360
3B39
360
3B3A
360
3B3B
  0
XRECORD
  5
3BAB
102
{ACAD_REACTORS
330
3A84
102
}
330
3A84
100
AcDbXrecord
280
     1
102
DISPLAYNAME
  1
Metric50
102
FLAGS
 90
        0
  0
XRECORD
  5
3BAA
102
{ACAD_REACTORS
330
3A82
102
}
330
3A82
100
AcDbXrecord
280
     1
102
DISPLAYNAME
  1
Metric50
102
FLAGS
 90
        0
  0
ACDBASSOCARRAYACTIONBODY
  5
3B36
330
3B35
100
AcDbAssocActionBody
 90
        1
100
AcDbAssocParamBasedActionBody
 90
        0
 90
        0
 90
        3
360
3B37
360
3B38
360
3B3C
 90
        0
 90
       10
 90
        0
  1
FillAngle
 90
        2
 90
        1
 40
6.283185307179586
330
0
330
0
 90
        0
  1
ItemSpacing
 90
        2
 90
        1
 40
0.5235987755982988
330
0
330
0
 90
        0
  1
Items
 90
        0
 90
        1
 90
       12
330
0
330
0
 90
        0
  1
LevelSpacing
 90
        1
 90
        1
 40
1.0
330
0
330
0
 90
        0
  1
Levels
 90
        0
 90
        1
 90
        1
330
0
330
0
 90
        0
  1
RowElevation
 90
        1
 90
        1
 40
0.0
330
0
330
0
 90
        0
  1
RowSpacing
 90
        1
 90
        1
 40
12.00000002999968
330
0
330
0
 90
        0
  1
Rows
 90
        0
 90
        1
 90
        1
330
0
330
0
 90
        0
  1
Radius
 90
        1
 90
        1
 40
310.0
330
0
330
0
 90
        0
  1
StartAngle
 90
        2
 90
        1
 40
1.832595714593107
330
0
330
0
100
AcDbAssocArrayActionBody
 90
        1
  1
AcDbAssocArrayPolarParameters
 90
        0
 90
       12
  1
AcDbAssocArrayItem
100
AcDbAssocArrayItem
 90
        0
 90
        0
 90
        0
 90
        0
 90
        8
 11
692.7077025391774
 21
2768.34722499926
 31
0.0
330
3B3E
100
AcDbAssocArrayItem
 90
        0
 90
        1
 90
        0
 90
        0
 90
       12
 40
0.8660254037844385
 40
-0.4999999999999999
 40
0.0
 40
553.7385043530539
 40
0.4999999999999999
 40
0.8660254037844385
 40
0.0
 40
2688.113321017608
 40
0.0
 40
0.0
 40
1.0
 40
0.0
 40
0.0
 40
0.0
 40
0.0
 40
1.0
330
3B3F
100
AcDbAssocArrayItem
 90
        0
 90
        2
 90
        0
 90
        0
 90
       12
 40
0.4999999999999999
 40
-0.8660254037844389
 40
0.0
 40
473.504600371142
 40
0.8660254037844387
 40
0.4999999999999999
 40
0.0
 40
2549.144122831636
 40
0.0
 40
0.0
 40
1.0
 40
0.0
 40
0.0
 40
0.0
 40
0.0
 40
1.0
330
3B40
100
AcDbAssocArrayItem
 90
        0
 90
        3
 90
        0
 90
        0
 90
       12
 40
0.0000000000000006
 40
-1.0
 40
0.0
 40
473.5046003709913
 40
0.9999999999999996
 40
0.0000000000000011
 40
0.0
 40
2388.676314868073
 40
0.0
 40
0.0
 40
0.9999999999999998
 40
0.0
 40
0.0
 40
0.0
 40
0.0
 40
1.0
330
3B41
100
AcDbAssocArrayItem
 90
        0
 90
        4
 90
        0
 90
        0
 90
       12
 40
-0.4999999999999996
 40
-0.866025403784439
 40
0.0
 40
553.7385043526422
 40
0.8660254037844385
 40
-0.4999999999999992
 40
0.0
 40
2249.707116681949
 40
0.0
 40
0.0
 40
1.0
 40
0.0
 40
0.0
 40
0.0
 40
0.0
 40
1.0
330
3B42
100
AcDbAssocArrayItem
 90
        0
 90
        5
 90
        0
 90
        0
 90
       12
 40
-0.8660254037844378
 40
-0.5000000000000016
 40
0.0
 40
692.707702538615
 40
0.5000000000000006
 40
-0.8660254037844378
 40
0.0
 40
2169.473212700037
 40
0.0
 40
0.0
 40
0.9999999999999998
 40
0.0
 40
0.0
 40
0.0
 40
0.0
 40
1.0
330
3B43
100
AcDbAssocArrayItem
 90
        0
 90
        6
 90
        0
 90
        0
 90
       12
 40
-0.9999999999999994
 40
-0.0000000000000021
 40
0.0
 40
853.175510502178
 40
0.0000000000000007
 40
-1.0
 40
0.0
 40
2169.473212699886
 40
0.0
 40
0.0
 40
1.0
 40
0.0
 40
0.0
 40
0.0
 40
0.0
 40
1.0
330
3B44
100
AcDbAssocArrayItem
 90
        0
 90
        7
 90
        0
 90
        0
 90
       12
 40
-0.8660254037844389
 40
0.4999999999999978
 40
0.0
 40
992.1447086883015
 40
-0.4999999999999985
 40
-0.8660254037844405
 40
0.0
 40
2249.707116681537
 40
0.0
 40
0.0
 40
1.0
 40
0.0
 40
0.0
 40
0.0
 40
0.0
 40
1.0
330
3B45
100
AcDbAssocArrayItem
 90
        0
 90
        8
 90
        0
 90
        0
 90
       12
 40
-0.5000000000000007
 40
0.8660254037844376
 40
0.0
 40
1072.378612670213
 40
-0.8660254037844374
 40
-0.5000000000000027
 40
0.0
 40
2388.67631486751
 40
0.0
 40
0.0
 40
1.0
 40
0.0
 40
0.0
 40
0.0
 40
0.0
 40
1.0
330
3B46
100
AcDbAssocArrayItem
 90
        0
 90
        9
 90
        0
 90
        0
 90
       12
 40
0.0000000000000004
 40
1.0
 40
0.0
 40
1072.378612670364
 40
-0.9999999999999992
 40
-0.0000000000000016
 40
0.0
 40
2549.144122831073
 40
0.0
 40
0.0
 40
1.0
 40
0.0
 40
0.0
 40
0.0
 40
0.0
 40
1.0
330
3B47
100
AcDbAssocArrayItem
 90
        0
 90
       10
 90
        0
 90
        0
 90
       12
 40
0.4999999999999994
 40
0.8660254037844403
 40
0.0
 40
992.1447086887132
 40
-0.8660254037844382
 40
0.4999999999999984
 40
0.0
 40
2688.113321017197
 40
0.0
 40
0.0
 40
1.0
 40
0.0
 40
0.0
 40
0.0
 40
0.0
 40
1.0
330
3B48
100
AcDbAssocArrayItem
 90
        0
 90
       11
 90
        0
 90
        0
 90
       12
 40
0.8660254037844376
 40
0.5000000000000028
 40
0.0
 40
853.1755105027405
 40
-0.5000000000000006
 40
0.8660254037844376
 40
0.0
 40
2768.347224999109
 40
0.0
 40
0.0
 40
1.0
 40
0.0
 40
0.0
 40
0.0
 40
0.0
 40
1.0
330
3B49
 40
1.0
 40
0.0
 40
0.0
 40
0.0
 40
0.0
 40
1.0
 40
0.0
 40
0.0
 40
0.0
 40
0.0
 40
1.0
 40
0.0
 40
0.0
 40
0.0
 40
0.0
 40
1.0
  0
ACDBASSOCDEPENDENCY
  5
3B39
330
3B35
100
AcDbAssocDependency
 90
        2
 90
        1
290
     0
290
     1
290
     1
290
     1
 90
        0
330
3B2B
290
     0
330
0
330
0
360
0
 90
        1
  0
ACDBASSOCDEPENDENCY
  5
3B3A
330
3B35
100
AcDbAssocDependency
 90
        2
 90
        1
290
     1
290
     0
290
     1
290
     1
 90
        0
330
3B28
290
     0
330
0
330
0
360
0
 90
        2
  0
ACDBASSOCDEPENDENCY
  5
3B3B
330
3B35
100
AcDbAssocDependency
 90
        2
 90
        0
290
     1
290
     1
290
     1
290
     1
 90
-2147483648
330
3B2E
290
     0
330
0
330
0
360
0
 90
        3
  0
ACDBASSOCVERTEXACTIONPARAM
  5
3B37
330
3B36
100
AcDbAssocActionParam
 90
        0
  1
BaseNormal
100
AcDbAssocSingleDependencyActionParam
 90
        0
330
0
100
AcDbAssocVertexActionParam
 90
        0
 10
0.0
 20
0.0
 30
1.0
  0
ACDBASSOCVERTEXACTIONPARAM
  5
3B38
330
3B36
100
AcDbAssocActionParam
 90
        0
  1
Origin
100
AcDbAssocSingleDependencyActionParam
 90
        0
330
0
100
AcDbAssocVertexActionParam
 90
        0
 10
772.9416065206779
 20
2468.910218849573
 30
0.0
  0
ACDBASSOCVERTEXACTIONPARAM
  5
3B3C
330
3B36
100
AcDbAssocActionParam
 90
        0
  1
basePoint
100
AcDbAssocSingleDependencyActionParam
 90
        0
330
0
100
AcDbAssocVertexActionParam
 90
        0
 10
0.0
 20
0.0
 30
0.0
  0
ENDSEC
  0
EOF
