  0
SECTION
  2
HEADER
  9
$ACADVER
  1
AC1015
  9
$ACADMAINTVER
 70
     6
  9
$DWGCODEPAGE
  3
ANSI_1250
  9
$INSBASE
 10
0.0
 20
0.0
 30
0.0
  9
$EXTMIN
 10
-984.5585807401004
 20
-1072.101765382726
 30
0.0
  9
$EXTMAX
 10
155.4414192598998
 20
2454.596603282235
 30
0.0
  9
$LIMMIN
 10
-1138.936370754036
 20
-1218.554041607513
  9
$LIMMAX
 10
387.8707113491732
 20
2570.485523402544
  9
$ORTHOMODE
 70
     1
  9
$REGENMODE
 70
     1
  9
$FILLMODE
 70
     1
  9
$QTEXTMODE
 70
     0
  9
$MIRRTEXT
 70
     1
  9
$LTSCALE
 40
32.67
  9
$ATTMODE
 70
     1
  9
$TEXTSIZE
 40
0.2
  9
$TRACEWID
 40
0.05
  9
$TEXTSTYLE
  7
STANDARD
  9
$CLAYER
  8
0
  9
$CELTYPE
  6
BYLAYER
  9
$CECOLOR
 62
   256
  9
$CELTSCALE
 40
1.0
  9
$DISPSILH
 70
     0
  9
$DIMSCALE
 40
1.0
  9
$DIMASZ
 40
3.5
  9
$DIMEXO
 40
0.0
  9
$DIMDLI
 40
22.572
  9
$DIMRND
 40
0.0
  9
$DIMDLE
 40
0.0
  9
$DIMEXE
 40
1.0
  9
$DIMTP
 40
0.04
  9
$DIMTM
 40
0.04
  9
$DIMTXT
 40
2.5
  9
$DIMCEN
 40
5.346
  9
$DIMTSZ
 40
0.0
  9
$DIMTOL
 70
     1
  9
$DIMLIM
 70
     0
  9
$DIMTIH
 70
     1
  9
$DIMTOH
 70
     1
  9
$DIMSE1
 70
     0
  9
$DIMSE2
 70
     0
  9
$DIMTAD
 70
     0
  9
$DIMZIN
 70
     0
  9
$DIMBLK
  1

  9
$DIMASO
 70
     1
  9
$DIMSHO
 70
     1
  9
$DIMPOST
  1

  9
$DIMAPOST
  1

  9
$DIMALT
 70
     0
  9
$DIMALTD
 70
     2
  9
$DIMALTF
 40
25.4
  9
$DIMLFAC
 40
1.0
  9
$DIMTOFL
 70
     0
  9
$DIMTVP
 40
0.0
  9
$DIMTIX
 70
     0
  9
$DIMSOXD
 70
     0
  9
$DIMSAH
 70
     0
  9
$DIMBLK1
  1

  9
$DIMBLK2
  1

  9
$DIMSTYLE
  2
STANDARD
  9
$DIMCLRD
 70
     0
  9
$DIMCLRE
 70
     0
  9
$DIMCLRT
 70
     0
  9
$DIMTFAC
 40
1.0
  9
$DIMGAP
 40
0.625
  9
$DIMJUST
 70
     0
  9
$DIMSD1
 70
     0
  9
$DIMSD2
 70
     0
  9
$DIMTOLJ
 70
     1
  9
$DIMTZIN
 70
     0
  9
$DIMALTZ
 70
     0
  9
$DIMALTTZ
 70
     0
  9
$DIMUPT
 70
     0
  9
$DIMDEC
 70
     4
  9
$DIMTDEC
 70
     4
  9
$DIMALTU
 70
     2
  9
$DIMALTTD
 70
     2
  9
$DIMTXSTY
  7
STANDARD
  9
$DIMAUNIT
 70
     0
  9
$DIMADEC
 70
     0
  9
$DIMALTRND
 40
0.0
  9
$DIMAZIN
 70
     0
  9
$DIMDSEP
 70
    44
  9
$DIMATFIT
 70
     3
  9
$DIMFRAC
 70
     0
  9
$DIMLDRBLK
  1

  9
$DIMLUNIT
 70
     2
  9
$DIMLWD
 70
    -2
  9
$DIMLWE
 70
    -2
  9
$DIMTMOVE
 70
     0
  9
$LUNITS
 70
     2
  9
$LUPREC
 70
     4
  9
$SKETCHINC
 40
0.1
  9
$FILLETRAD
 40
0.5
  9
$AUNITS
 70
     0
  9
$AUPREC
 70
     0
  9
$MENU
  1
.
  9
$ELEVATION
 40
0.0
  9
$PELEVATION
 40
0.0
  9
$THICKNESS
 40
0.0
  9
$LIMCHECK
 70
     0
  9
$CHAMFERA
 40
0.0
  9
$CHAMFERB
 40
0.0
  9
$CHAMFERC
 40
0.0
  9
$CHAMFERD
 40
0.0
  9
$SKPOLY
 70
     0
  9
$TDCREATE
 40
2457071.920398113
  9
$TDUCREATE
 40
2457071.878731447
  9
$TDUPDATE
 40
2457072.653902709
  9
$TDUUPDATE
 40
2457072.612236042
  9
$TDINDWG
 40
0.0627043866
  9
$TDUSRTIMER
 40
2457072.609682465
  9
$USRTIMER
 70
     1
  9
$ANGBASE
 50
0.0
  9
$ANGDIR
 70
     0
  9
$PDMODE
 70
     3
  9
$PDSIZE
 40
6.0
  9
$PLINEWID
 40
0.0
  9
$SPLFRAME
 70
     0
  9
$SPLINETYPE
 70
     6
  9
$SPLINESEGS
 70
     8
  9
$HANDSEED
  5
378D
  9
$SURFTAB1
 70
     6
  9
$SURFTAB2
 70
     6
  9
$SURFTYPE
 70
     6
  9
$SURFU
 70
     6
  9
$SURFV
 70
     6
  9
$UCSBASE
  2

  9
$UCSNAME
  2

  9
$UCSORG
 10
0.0
 20
0.0
 30
0.0
  9
$UCSXDIR
 10
1.0
 20
0.0
 30
0.0
  9
$UCSYDIR
 10
0.0
 20
1.0
 30
0.0
  9
$UCSORTHOREF
  2

  9
$UCSORTHOVIEW
 70
     0
  9
$UCSORGTOP
 10
0.0
 20
0.0
 30
0.0
  9
$UCSORGBOTTOM
 10
0.0
 20
0.0
 30
0.0
  9
$UCSORGLEFT
 10
0.0
 20
0.0
 30
0.0
  9
$UCSORGRIGHT
 10
0.0
 20
0.0
 30
0.0
  9
$UCSORGFRONT
 10
0.0
 20
0.0
 30
0.0
  9
$UCSORGBACK
 10
0.0
 20
0.0
 30
0.0
  9
$PUCSBASE
  2

  9
$PUCSNAME
  2

  9
$PUCSORG
 10
0.0
 20
0.0
 30
0.0
  9
$PUCSXDIR
 10
1.0
 20
0.0
 30
0.0
  9
$PUCSYDIR
 10
0.0
 20
1.0
 30
0.0
  9
$PUCSORTHOREF
  2

  9
$PUCSORTHOVIEW
 70
     0
  9
$PUCSORGTOP
 10
0.0
 20
0.0
 30
0.0
  9
$PUCSORGBOTTOM
 10
0.0
 20
0.0
 30
0.0
  9
$PUCSORGLEFT
 10
0.0
 20
0.0
 30
0.0
  9
$PUCSORGRIGHT
 10
0.0
 20
0.0
 30
0.0
  9
$PUCSORGFRONT
 10
0.0
 20
0.0
 30
0.0
  9
$PUCSORGBACK
 10
0.0
 20
0.0
 30
0.0
  9
$USERI1
 70
     0
  9
$USERI2
 70
     0
  9
$USERI3
 70
     0
  9
$USERI4
 70
     0
  9
$USERI5
 70
     0
  9
$USERR1
 40
0.0
  9
$USERR2
 40
0.0
  9
$USERR3
 40
0.0
  9
$USERR4
 40
0.0
  9
$USERR5
 40
0.0
  9
$WORLDVIEW
 70
     1
  9
$SHADEDGE
 70
     3
  9
$SHADEDIF
 70
    70
  9
$TILEMODE
 70
     1
  9
$MAXACTVP
 70
    64
  9
$PINSBASE
 10
0.0
 20
0.0
 30
0.0
  9
$PLIMCHECK
 70
     0
  9
$PEXTMIN
 10
1.000000000000000E+20
 20
1.000000000000000E+20
 30
1.000000000000000E+20
  9
$PEXTMAX
 10
-1.000000000000000E+20
 20
-1.000000000000000E+20
 30
-1.000000000000000E+20
  9
$PLIMMIN
 10
0.0
 20
0.0
  9
$PLIMMAX
 10
594.0
 20
420.0
  9
$UNITMODE
 70
     0
  9
$VISRETAIN
 70
     1
  9
$PLINEGEN
 70
     0
  9
$PSLTSCALE
 70
     1
  9
$TREEDEPTH
 70
  3020
  9
$CMLSTYLE
  2
Standard
  9
$CMLJUST
 70
     0
  9
$CMLSCALE
 40
1.0
  9
$PROXYGRAPHICS
 70
     1
  9
$MEASUREMENT
 70
     1
  9
$CELWEIGHT
370
    -1
  9
$ENDCAPS
280
     0
  9
$JOINSTYLE
280
     0
  9
$LWDISPLAY
290
     0
  9
$INSUNITS
 70
     4
  9
$HYPERLINKBASE
  1

  9
$STYLESHEET
  1

  9
$XEDIT
290
     1
  9
$CEPSNTYPE
380
     0
  9
$PSTYLEMODE
290
     1
  9
$FINGERPRINTGUID
  2
{E9C6B30A-59FB-4AA2-A627-2152B9EE8EE6}
  9
$VERSIONGUID
  2
{0668C855-92B2-44AA-92ED-489971BCAE8C}
  9
$EXTNAMES
290
     1
  9
$PSVPSCALE
 40
0.0
  9
$OLESTARTUP
290
     0
  0
ENDSEC
  0
SECTION
  2
CLASSES
  0
CLASS
  1
ACDBDICTIONARYWDFLT
  2
AcDbDictionaryWithDefault
  3
ObjectDBX Classes
 90
        0
280
     0
281
     0
  0
CLASS
  1
ACDBPLACEHOLDER
  2
AcDbPlaceHolder
  3
ObjectDBX Classes
 90
        0
280
     0
281
     0
  0
CLASS
  1
LAYOUT
  2
AcDbLayout
  3
ObjectDBX Classes
 90
        0
280
     0
281
     0
  0
CLASS
  1
RASTERVARIABLES
  2
AcDbRasterVariables
  3
ISM
 90
        0
280
     0
281
     0
  0
CLASS
  1
IMAGEDEF
  2
AcDbRasterImageDef
  3
ISM
 90
        0
280
     0
281
     0
  0
CLASS
  1
IMAGEDEF_REACTOR
  2
AcDbRasterImageDefReactor
  3
ISM
 90
        1
280
     0
281
     0
  0
CLASS
  1
IMAGE
  2
AcDbRasterImage
  3
ISM
 90
      127
280
     0
281
     1
  0
CLASS
  1
SCALE
  2
AcDbScale
  3
ObjectDBX Classes
 90
     1153
280
     0
281
     0
  0
CLASS
  1
VISUALSTYLE
  2
AcDbVisualStyle
  3
ObjectDBX Classes
 90
     4095
280
     0
281
     0
  0
CLASS
  1
MATERIAL
  2
AcDbMaterial
  3
ObjectDBX Classes
 90
     1153
280
     0
281
     0
  0
CLASS
  1
TABLESTYLE
  2
AcDbTableStyle
  3
ObjectDBX Classes
 90
     4095
280
     0
281
     0
  0
CLASS
  1
SUN
  2
AcDbSun
  3
SCENEOE
 90
     1153
280
     0
281
     0
  0
CLASS
  1
MLEADERSTYLE
  2
AcDbMLeaderStyle
  3
ACDB_MLEADERSTYLE_CLASS
 90
     4095
280
     0
281
     0
  0
CLASS
  1
ACDBSECTIONVIEWSTYLE
  2
AcDbSectionViewStyle
  3
ObjectDBX Classes
 90
     1025
280
     1
281
     0
  0
CLASS
  1
ACDBDETAILVIEWSTYLE
  2
AcDbDetailViewStyle
  3
ObjectDBX Classes
 90
     1025
280
     1
281
     0
  0
CLASS
  1
DICTIONARYVAR
  2
AcDbDictionaryVar
  3
ObjectDBX Classes
 90
        0
280
     0
281
     0
  0
CLASS
  1
SORTENTSTABLE
  2
AcDbSortentsTable
  3
ObjectDBX Classes
 90
        0
280
     0
281
     0
  0
CLASS
  1
ACARRAYJIGENTITY
  2
AcArrayJigEntity
  3
ACAD_ARRAY
 90
      129
280
     1
281
     1
  0
CLASS
  1
ACDBASSOCNETWORK
  2
AcDbAssocNetwork
  3
ObjectDBX Classes
 90
     1025
280
     1
281
     0
  0
CLASS
  1
ACDBASSOCACTION
  2
AcDbAssocAction
  3
ObjectDBX Classes
 90
     1025
280
     1
281
     0
  0
CLASS
  1
ACDBASSOCARRAYACTIONBODY
  2
AcDbAssocArrayActionBody
  3
ObjectDBX Classes
 90
     1025
280
     1
281
     0
  0
CLASS
  1
ACDBASSOCVERTEXACTIONPARAM
  2
AcDbAssocVertexActionParam
  3
ObjectDBX Classes
 90
     1025
280
     1
281
     0
  0
CLASS
  1
ACDBASSOCDEPENDENCY
  2
AcDbAssocDependency
  3
ObjectDBX Classes
 90
     1025
280
     1
281
     0
  0
CLASS
  1
ACDBASSOCARRAYPOLARPARAMETERS
  2
AcDbAssocArrayPolarParameters
  3
ObjectDBX Classes
 90
     1025
280
     1
281
     0
  0
CLASS
  1
CELLSTYLEMAP
  2
AcDbCellStyleMap
  3
ObjectDBX Classes
 90
     1152
280
     0
281
     0
  0
ENDSEC
  0
SECTION
  2
TABLES
  0
TABLE
  2
VPORT
  5
8
330
0
100
AcDbSymbolTable
 70
     1
  0
VPORT
  5
1F4
330
8
100
AcDbSymbolTableRecord
100
AcDbViewportTableRecord
  2
*ACTIVE
 70
     0
 10
0.0
 20
0.0
 11
1.0
 21
1.0
 12
-535.407916833658
 22
536.0750396576931
 13
0.0
 23
0.0
 14
1.0
 24
1.0
 15
0.0
 25
0.0
 16
0.0
 26
0.0
 36
1.0
 17
0.0
 27
0.0
 37
0.0
 40
4756.283842153975
 41
2.038655462184874
 42
50.0
 43
0.0
 44
0.0
 50
0.0
 51
0.0
 71
    16
 72
   100
 73
     1
 74
     1
 75
     0
 76
     0
 77
     0
 78
     0
281
     0
 65
     1
110
0.0
120
0.0
130
0.0
111
1.0
121
0.0
131
0.0
112
0.0
122
1.0
132
0.0
 79
     0
146
0.0
1001
ACAD_NAV_VCDISPLAY
1070
     3
  0
ENDTAB
  0
TABLE
  2
LTYPE
  5
5
330
0
100
AcDbSymbolTable
 70
     6
  0
LTYPE
  5
14
330
5
100
AcDbSymbolTableRecord
100
AcDbLinetypeTableRecord
  2
BYBLOCK
 70
     0
  3

 72
    65
 73
     0
 40
0.0
  0
LTYPE
  5
15
330
5
100
AcDbSymbolTableRecord
100
AcDbLinetypeTableRecord
  2
BYLAYER
 70
     0
  3

 72
    65
 73
     0
 40
0.0
  0
LTYPE
  5
16
330
5
100
AcDbSymbolTableRecord
100
AcDbLinetypeTableRecord
  2
CONTINUOUS
 70
     0
  3
Solid line
 72
    65
 73
     0
 40
0.0
  0
LTYPE
  5
1F5
330
5
100
AcDbSymbolTableRecord
100
AcDbLinetypeTableRecord
  2
CENTER
 70
     0
  3
____ _ ____ _ ____ _ ____ _ ____ _ ____ _ ____
 72
    65
 73
     4
 40
0.6
 49
0.375
 74
     0
 49
-0.075
 74
     0
 49
0.075
 74
     0
 49
-0.075
 74
     0
  0
ENDTAB
  0
TABLE
  2
LAYER
  5
2
102
{ACAD_XDICTIONARY
360
336B
102
}
330
0
100
AcDbSymbolTable
 70
    86
  0
LAYER
  5
10
102
{ACAD_XDICTIONARY
360
3269
102
}
330
2
100
AcDbSymbolTableRecord
100
AcDbLayerTableRecord
  2
0
 70
     0
 62
     7
  6
CONTINUOUS
370
    -3
390
F
  0
LAYER
  5
203
102
{ACAD_XDICTIONARY
360
327D
102
}
330
2
100
AcDbSymbolTableRecord
100
AcDbLayerTableRecord
  2
02__ASM_ALL_AXES
 70
     0
 62
     7
  6
CONTINUOUS
370
    -3
390
F
  0
LAYER
  5
21F
102
{ACAD_XDICTIONARY
360
32B5
102
}
330
2
100
AcDbSymbolTableRecord
100
AcDbLayerTableRecord
  2
ALL_ASSEM_MEMBER
 70
     0
 62
     7
  6
CONTINUOUS
370
    -3
390
F
  0
ENDTAB
  0
TABLE
  2
STYLE
  5
3
330
0
100
AcDbSymbolTable
 70
     6
  0
STYLE
  5
11
330
3
100
AcDbSymbolTableRecord
100
AcDbTextStyleTableRecord
  2
STANDARD
 70
     0
 40
0.0
 41
0.6
 50
0.0
 71
     0
 42
0.2
  3
txt
  4

  0
ENDTAB
  0
TABLE
  2
VIEW
  5
6
330
0
100
AcDbSymbolTable
 70
     0
  0
ENDTAB
  0
TABLE
  2
UCS
  5
7
330
0
100
AcDbSymbolTable
 70
     0
  0
ENDTAB
  0
TABLE
  2
APPID
  5
9
330
0
100
AcDbSymbolTable
 70
     4
  0
APPID
  5
253
330
9
100
AcDbSymbolTableRecord
100
AcDbRegAppTableRecord
  2
ACAD
 70
     0
  0
APPID
  5
3247
330
9
100
AcDbSymbolTableRecord
100
AcDbRegAppTableRecord
  2
ACAD_EXEMPT_FROM_CAD_STANDARDS
 70
     0
  0
APPID
  5
3313
330
9
100
AcDbSymbolTableRecord
100
AcDbRegAppTableRecord
  2
ACAD_NAV_VCDISPLAY
 70
     0
  0
APPID
  5
3758
330
9
100
AcDbSymbolTableRecord
100
AcDbRegAppTableRecord
  2
ACAD_MLEADERVER
 70
     0
  0
ENDTAB
  0
TABLE
  2
DIMSTYLE
  5
A
330
0
100
AcDbSymbolTable
 70
    10
100
AcDbDimStyleTable
  0
DIMSTYLE
105
29E
330
A
100
AcDbSymbolTableRecord
100
AcDbDimStyleTableRecord
  2
STANDARD
 70
     0
 41
3.5
 42
0.0
 44
1.0
 47
0.04
 48
0.04
 71
     1
 73
     0
 74
     0
 77
     1
 78
     8
140
2.5
147
0.625
178
     0
271
     1
272
     1
278
    44
284
     8
340
11
341
256
342
256
343
256
344
256
  0
ENDTAB
  0
TABLE
  2
BLOCK_RECORD
  5
1
330
0
100
AcDbSymbolTable
 70
    65
  0
BLOCK_RECORD
  5
254
102
{ACAD_XDICTIONARY
360
3382
102
}
330
1
100
AcDbSymbolTableRecord
100
AcDbBlockTableRecord
  2
*Model_Space
340
31BD
  0
BLOCK_RECORD
  5
255
330
1
100
AcDbSymbolTableRecord
100
AcDbBlockTableRecord
  2
*Paper_Space
340
31BE
  0
BLOCK_RECORD
  5
256
330
1
100
AcDbSymbolTableRecord
100
AcDbBlockTableRecord
  2
_FILLED
340
0
  0
BLOCK_RECORD
  5
33D0
102
{ACAD_REACTORS
330
33E2
102
}
330
1
100
AcDbSymbolTableRecord
100
AcDbBlockTableRecord
  2
*U60
340
0
102
{BLKREFS
331
33E6
331
33E7
331
33E8
331
33E9
331
33EA
331
33EB
331
33EC
331
33ED
331
33EE
331
33EF
331
33F0
331
33F1
102
}
  0
BLOCK_RECORD
  5
33D3
102
{ACAD_REACTORS
330
33E1
102
}
102
{ACAD_XDICTIONARY
360
375B
102
}
330
1
100
AcDbSymbolTableRecord
100
AcDbBlockTableRecord
  2
*U61
340
0
102
{BLKREFS
331
33D6
102
}
  0
ENDTAB
  0
ENDSEC
  0
SECTION
  2
BLOCKS
  0
BLOCK
  5
20
330
254
100
AcDbEntity
  8
0
100
AcDbBlockBegin
  2
*Model_Space
 70
     0
 10
0.0
 20
0.0
 30
0.0
  3
*Model_Space
  1
*Model_Space
  0
ENDBLK
  5
21
330
254
100
AcDbEntity
  8
0
100
AcDbBlockEnd
  0
BLOCK
  5
1C
330
255
100
AcDbEntity
 67
     1
  8
0
100
AcDbBlockBegin
  2
*Paper_Space
 70
     0
 10
0.0
 20
0.0
 30
0.0
  3
*Paper_Space
  1
*Paper_Space
  0
ENDBLK
  5
1D
330
255
100
AcDbEntity
 67
     1
  8
0
100
AcDbBlockEnd
  0
BLOCK
  5
3FE
330
256
100
AcDbEntity
  8
0
100
AcDbBlockBegin
  2
_FILLED
 70
     0
 10
0.0
 20
0.0
 30
0.0
  3
_FILLED
  1
_FILLED
  0
SOLID
  5
3FF
330
256
100
AcDbEntity
  8
0
  6
ByBlock
 62
     0
100
AcDbTrace
 10
0.0
 20
0.0
 30
0.0
 11
-1.0
 21
0.2142857143
 31
0.0
 12
-1.0
 22
-0.2142857143
 32
0.0
 13
-1.0
 23
-0.2142857143
 33
0.0
  0
ENDBLK
  5
400
330
256
100
AcDbEntity
  8
0
  6
ByBlock
 62
     0
100
AcDbBlockEnd
  0
BLOCK
  5
33D1
330
33D0
100
AcDbEntity
  8
0
100
AcDbBlockBegin
  2
*U60
 70
     1
 10
0.0
 20
0.0
 30
0.0
  3
*U60
  1
*U60
  0
CIRCLE
  5
33D7
330
33D0
100
AcDbEntity
  8
0
100
AcDbCircle
 10
0.0
 20
-0.0000000000002274
 30
0.0
 40
4.0
  0
ENDBLK
  5
33D2
330
33D0
100
AcDbEntity
  8
0
100
AcDbBlockEnd
  0
BLOCK
  5
33D4
330
33D3
100
AcDbEntity
  8
0
100
AcDbBlockBegin
  2
*U61
 70
     1
 10
0.0
 20
0.0
 30
0.0
  3
*U61
  1
*U61
  0
INSERT
  5
33E6
330
33D3
100
AcDbEntity
  8
0
  6
ByBlock
 62
     0
370
    -2
380
     1
100
AcDbBlockReference
  2
*U60
 10
-81.31417067037171
 20
1973.889173842604
 30
0.0
  0
INSERT
  5
33E7
330
33D3
100
AcDbEntity
  8
0
  6
ByBlock
 62
     0
370
    -2
380
     1
100
AcDbBlockReference
  2
*U60
 10
-170.6067412307414
 20
2128.548442791594
 30
0.0
 50
30.0
  0
INSERT
  5
33E8
330
33D3
100
AcDbEntity
  8
0
  6
ByBlock
 62
     0
370
    -2
380
     1
100
AcDbBlockReference
  2
*U60
 10
-325.2660101797307
 20
2217.841013351963
 30
0.0
 50
60.0
  0
INSERT
  5
33E9
330
33D3
100
AcDbEntity
  8
0
  6
ByBlock
 62
     0
370
    -2
380
     1
100
AcDbBlockReference
  2
*U60
 10
-503.8511513004699
 20
2217.841013351963
 30
0.0
 50
89.99999999999999
  0
INSERT
  5
33EA
330
33D3
100
AcDbEntity
  8
0
  6
ByBlock
 62
     0
370
    -2
380
     1
100
AcDbBlockReference
  2
*U60
 10
-658.5104202494592
 20
2128.548442791594
 30
0.0
 50
120.0
  0
INSERT
  5
33EB
330
33D3
100
AcDbEntity
  8
0
  6
ByBlock
 62
     0
370
    -2
380
     1
100
AcDbBlockReference
  2
*U60
 10
-747.8029908098289
 20
1973.889173842604
 30
0.0
 50
150.0
  0
INSERT
  5
33EC
330
33D3
100
AcDbEntity
  8
0
  6
ByBlock
 62
     0
370
    -2
380
     1
100
AcDbBlockReference
  2
*U60
 10
-747.802990809829
 20
1795.304032721865
 30
0.0
 50
180.0
  0
INSERT
  5
33ED
330
33D3
100
AcDbEntity
  8
0
  6
ByBlock
 62
     0
370
    -2
380
     1
100
AcDbBlockReference
  2
*U60
 10
-658.5104202494592
 20
1640.644763772876
 30
0.0
 50
210.0
  0
INSERT
  5
33EE
330
33D3
100
AcDbEntity
  8
0
  6
ByBlock
 62
     0
370
    -2
380
     1
100
AcDbBlockReference
  2
*U60
 10
-503.8511513004699
 20
1551.352193212506
 30
0.0
 50
239.9999999999999
  0
INSERT
  5
33EF
330
33D3
100
AcDbEntity
  8
0
  6
ByBlock
 62
     0
370
    -2
380
     1
100
AcDbBlockReference
  2
*U60
 10
-325.2660101797308
 20
1551.352193212506
 30
0.0
 50
269.9999999999999
  0
INSERT
  5
33F0
330
33D3
100
AcDbEntity
  8
0
  6
ByBlock
 62
     0
370
    -2
380
     1
100
AcDbBlockReference
  2
*U60
 10
-170.6067412307414
 20
1640.644763772876
 30
0.0
 50
299.9999999999998
  0
INSERT
  5
33F1
330
33D3
100
AcDbEntity
  8
0
  6
ByBlock
 62
     0
370
    -2
380
     1
100
AcDbBlockReference
  2
*U60
 10
-81.31417067037165
 20
1795.304032721865
 30
0.0
 50
329.9999999999999
  0
ENDBLK
  5
33D5
330
33D3
100
AcDbEntity
  8
0
100
AcDbBlockEnd
  0
ENDSEC
  0
SECTION
  2
ENTITIES
  0
IMAGE
  5
478
330
254
100
AcDbEntity
  8
0
 92
        8
310
0800000000000000
100
AcDbRasterImage
 90
        0
 10
506.5853089461
 20
342.8287192337
 30
0.0
 11
0.1693333333
 21
0.0
 31
0.0
 12
0.0
 22
0.1693333333
 32
0.0
 13
377.0
 23
353.0
340
0
 70
     9
280
     0
281
    50
282
    50
283
     0
360
0
 71
     1
 91
        2
 14
-0.5
 24
-0.5
 14
376.5
 24
352.5
  0
HATCH
  5
489
330
254
100
AcDbEntity
  8
0
 62
     2
100
AcDbHatch
 10
0.0
 20
0.0
 30
0.0
210
0.0
220
0.0
230
1.0
  2
DEFAULT__17
 70
     0
 71
     0
 91
        2
 92
        1
 93
        4
 72
     1
 10
346.6676375884
 20
390.6545955857
 11
349.0676375884
 21
390.6545955857
 72
     1
 10
346.6676375884
 20
390.6545955857
 11
346.6676375884
 21
391.2545955857
 72
     1
 10
346.6676375884
 20
391.2545955857
 11
349.0676375884
 21
391.2545955857
 72
     1
 10
349.0676375884
 20
390.6545955857
 11
349.0676375884
 21
391.2545955857
 97
        0
 92
        1
 93
        4
 72
     1
 10
351.6676375883999
 20
390.6545955857
 11
354.0676375884
 21
390.6545955857
 72
     1
 10
351.6676375883999
 20
390.6545955857
 11
351.6676375883999
 21
391.2545955857
 72
     1
 10
351.6676375883999
 20
391.2545955857
 11
354.0676375884
 21
391.2545955857
 72
     1
 10
354.0676375884
 20
390.6545955857
 11
354.0676375884
 21
391.2545955857
 97
        0
 75
     0
 76
     0
 52
45.0
 41
11.88
 77
     0
 78
     1
 53
45.0
 43
0.0
 44
0.0
 45
-8.400428560499998
 46
8.400428560499998
 79
     0
 98
        1
 10
0.0
 20
0.0
  0
LINE
  5
112F
330
254
100
AcDbEntity
  8
ALL_ASSEM_MEMBER
  6
Continuous
 62
     7
100
AcDbLine
 10
-964.5585807400998
 20
1057.554595585848
 30
0.0
 11
-904.5585807401
 21
1161.4776440397
 31
0.0
  0
LINE
  5
113B
330
254
100
AcDbEntity
  8
ALL_ASSEM_MEMBER
  6
Continuous
 62
     7
100
AcDbLine
 10
-964.5585807401003
 20
382.5545955852695
 30
0.0
 11
-894.5585807401
 21
282.5545955856297
 31
0.0
  0
LINE
  5
1147
330
254
100
AcDbEntity
  8
ALL_ASSEM_MEMBER
  6
Continuous
 62
     7
100
AcDbLine
 10
-964.5585807400998
 20
1057.554595585848
 30
0.0
 11
-964.5585807401003
 21
382.5545955852695
 31
0.0
  0
LWPOLYLINE
  5
114E
330
254
100
AcDbEntity
  8
ALL_ASSEM_MEMBER
  6
Continuous
 62
     7
100
AcDbPolyline
 90
       10
 70
     0
 43
0.0
 10
-747.8029908100999
 20
249.4545955857002
 10
-748.0673190611001
 20
249.6035906961999
 10
-748.3259386906
 20
249.7421568492
 10
-748.5795969851001
 20
249.8708293507
 10
-748.8289652556
 20
249.9900501197001
 10
-749.0746485440999
 20
250.1001792162001
 10
-749.3171911106001
 20
250.2015036987002
 10
-749.5570815291
 20
250.2942460342001
 10
-749.7947554171
 20
250.3785714312
 10
-750.0305991231
 20
250.4545955857
  0
LWPOLYLINE
  5
114F
330
254
100
AcDbEntity
  8
ALL_ASSEM_MEMBER
  6
Continuous
 62
     7
100
AcDbPolyline
 90
       10
 70
     0
 43
0.0
 10
-739.3029908101
 20
249.4545955857002
 10
-739.5673190610999
 20
249.6035906961999
 10
-739.8259386906
 20
249.7421568492
 10
-740.0795969851001
 20
249.8708293507
 10
-740.3289652556
 20
249.9900501197001
 10
-740.5746485441
 20
250.1001792162001
 10
-740.8171911105999
 20
250.2015036987002
 10
-741.0570815291
 20
250.2942460342001
 10
-741.2947554171
 20
250.3785714312
 10
-741.5305991231
 20
250.4545955857
  0
LINE
  5
1156
330
254
100
AcDbEntity
  8
ALL_ASSEM_MEMBER
  6
Continuous
 62
     7
100
AcDbLine
 10
-934.0585807401
 20
197.5545955857
 30
0.0
 11
-934.0585807401
 21
232.5545955857
 31
0.0
  0
LINE
  5
1157
330
254
100
AcDbEntity
  8
ALL_ASSEM_MEMBER
  6
Continuous
 62
     7
100
AcDbLine
 10
-932.0585807401
 20
197.5545955857
 30
0.0
 11
-932.0585807401
 21
232.5545955857
 31
0.0
  0
LINE
  5
1158
330
254
100
AcDbEntity
  8
ALL_ASSEM_MEMBER
  6
Continuous
 62
     7
100
AcDbLine
 10
-934.0585807401
 20
197.5545955857
 30
0.0
 11
104.9414192598999
 21
197.5545955857
 31
0.0
  0
LINE
  5
115B
330
254
100
AcDbEntity
  8
ALL_ASSEM_MEMBER
  6
Continuous
 62
     7
100
AcDbLine
 10
-734.3029908101
 20
237.5545955857001
 30
0.0
 11
-739.3029908101
 21
244.0545955857001
 31
0.0
  0
LINE
  5
116B
330
254
100
AcDbEntity
  8
ALL_ASSEM_MEMBER
  6
Continuous
 62
     7
100
AcDbLine
 10
-894.5585807400995
 20
237.5545955857001
 30
0.0
 11
-894.5585807401002
 21
282.5545955856298
 31
0.0
  0
LINE
  5
1193
330
254
100
AcDbEntity
  8
ALL_ASSEM_MEMBER
  6
Continuous
 62
     7
100
AcDbLine
 10
-929.0585807401001
 20
235.5545955857001
 30
0.0
 11
99.94141925989993
 21
235.5545955857001
 31
0.0
  0
LINE
  5
1194
330
254
100
AcDbEntity
  8
ALL_ASSEM_MEMBER
  6
Continuous
 62
     7
100
AcDbLine
 10
-929.0585807401001
 20
237.5545955857001
 30
0.0
 11
-702.6724956940999
 21
237.5545955857001
 31
0.0
  0
LINE
  5
11A6
330
254
100
AcDbEntity
  8
ALL_ASSEM_MEMBER
  6
Continuous
 62
     7
100
AcDbLine
 10
-756.3029908101
 20
244.0545955857001
 30
0.0
 11
-739.3029908101
 21
244.0545955857001
 31
0.0
  0
LINE
  5
11A7
330
254
100
AcDbEntity
  8
ALL_ASSEM_MEMBER
  6
Continuous
 62
     7
100
AcDbLine
 10
-89.81417067059988
 20
244.0545955857001
 30
0.0
 11
-72.8141706706001
 21
244.0545955857001
 31
0.0
  0
LINE
  5
11B0
330
254
100
AcDbEntity
  8
ALL_ASSEM_MEMBER
  6
Continuous
 62
     7
100
AcDbLine
 10
-756.3029908101
 20
250.4545955857
 30
0.0
 11
-739.3029908101
 21
250.4545955857
 31
0.0
  0
LINE
  5
11B1
330
254
100
AcDbEntity
  8
ALL_ASSEM_MEMBER
  6
Continuous
 62
     7
100
AcDbLine
 10
-89.81417067059988
 20
250.4545955857
 30
0.0
 11
-72.8141706706001
 21
250.4545955857
 31
0.0
  0
LINE
  5
12D4
330
254
100
AcDbEntity
  8
ALL_ASSEM_MEMBER
  6
Continuous
 62
     7
100
AcDbLine
 10
-756.3029908101
 20
244.0545955857001
 30
0.0
 11
-756.3029908101
 21
250.4545955857
 31
0.0
  0
LINE
  5
12DB
330
254
100
AcDbEntity
  8
ALL_ASSEM_MEMBER
  6
Continuous
 62
     7
100
AcDbLine
 10
-747.8029908100999
 20
244.0545955857001
 30
0.0
 11
-747.8029908100999
 21
249.4545955857002
 31
0.0
  0
LINE
  5
12E1
330
254
100
AcDbEntity
  8
ALL_ASSEM_MEMBER
  6
Continuous
 62
     7
100
AcDbLine
 10
-739.3029908101
 20
244.0545955857001
 30
0.0
 11
-739.3029908101
 21
250.4545955857
 31
0.0
  0
LINE
  5
13BE
330
254
100
AcDbEntity
  8
ALL_ASSEM_MEMBER
  6
Continuous
 62
     7
100
AcDbLine
 10
-624.5585807401
 20
1164.0545955857
 30
0.0
 11
-624.5585807401
 21
1161.4776440397
 31
0.0
  0
LWPOLYLINE
  5
1404
330
254
100
AcDbEntity
  8
ALL_ASSEM_MEMBER
  6
Continuous
 62
     7
100
AcDbPolyline
 90
       10
 70
     0
 43
0.0
 10
-81.3141706706001
 20
249.4545955857002
 10
-81.57849892160014
 20
249.6035906961999
 10
-81.83711855160003
 20
249.7421568492
 10
-82.09077684559998
 20
249.8708293507
 10
-82.34014511610008
 20
249.9900501197001
 10
-82.58582840460006
 20
250.1001792162001
 10
-82.82837097109994
 20
250.2015036987002
 10
-83.06826138960014
 20
250.2942460342001
 10
-83.30593527760016
 20
250.3785714312
 10
-83.5417789835999
 20
250.4545955857
  0
LWPOLYLINE
  5
1405
330
254
100
AcDbEntity
  8
ALL_ASSEM_MEMBER
  6
Continuous
 62
     7
100
AcDbPolyline
 90
       10
 70
     0
 43
0.0
 10
-72.8141706706001
 20
249.4545955857002
 10
-73.07849892160016
 20
249.6035906961999
 10
-73.33711855160004
 20
249.7421568492
 10
-73.59077684559998
 20
249.8708293507
 10
-73.84014511610008
 20
249.9900501197001
 10
-74.08582840460008
 20
250.1001792162001
 10
-74.32837097109994
 20
250.2015036987002
 10
-74.56826138960014
 20
250.2942460342001
 10
-74.80593527759991
 20
250.3785714312
 10
-75.0417789835999
 20
250.4545955857
  0
LINE
  5
1406
330
254
100
AcDbEntity
  8
ALL_ASSEM_MEMBER
  6
Continuous
 62
     7
100
AcDbLine
 10
-159.6878424031
 20
255.9038912211999
 30
0.0
 11
-133.2574612561
 21
237.6760421547001
 31
0.0
  0
LINE
  5
1407
330
254
100
AcDbEntity
  8
ALL_ASSEM_MEMBER
  6
Continuous
 62
     7
100
AcDbLine
 10
-158.5585807401001
 20
257.5545955857001
 30
0.0
 11
-132.1219953446
 21
239.3224677262001
 31
0.0
  0
LINE
  5
1614
330
254
100
AcDbEntity
  8
02__ASM_ALL_AXES
  6
CENTER
 62
     2
100
AcDbLine
 10
-414.5585807401
 20
177.5545955857
 30
0.0
 11
-414.5585807400999
 21
1187.5545955857
 31
0.0
  0
LINE
  5
16A1
330
254
100
AcDbEntity
  8
ALL_ASSEM_MEMBER
  6
Continuous
 62
     7
100
AcDbLine
 10
-67.8141706706001
 20
237.5545955857001
 30
0.0
 11
-72.8141706706001
 21
244.0545955857001
 31
0.0
  0
LINE
  5
16C4
330
254
100
AcDbEntity
  8
ALL_ASSEM_MEMBER
  6
Continuous
 62
     7
100
AcDbLine
 10
-761.3029908101
 20
237.5545955857001
 30
0.0
 11
-756.3029908101
 21
244.0545955857001
 31
0.0
  0
LINE
  5
17A9
330
254
100
AcDbEntity
  8
ALL_ASSEM_MEMBER
  6
Continuous
 62
     7
100
AcDbLine
 10
-204.5585807401001
 20
1164.0545955857
 30
0.0
 11
-204.5585807401001
 21
1161.4776440397
 31
0.0
  0
LINE
  5
17CA
330
254
100
AcDbEntity
  8
ALL_ASSEM_MEMBER
  6
Continuous
 62
     7
100
AcDbLine
 10
-670.5585807401
 20
257.5545955857001
 30
0.0
 11
-696.9951661361
 21
239.3224677262001
 31
0.0
  0
LINE
  5
17CB
330
254
100
AcDbEntity
  8
ALL_ASSEM_MEMBER
  6
Continuous
 62
     7
100
AcDbLine
 10
-669.4293190776
 20
255.9038912211999
 30
0.0
 11
-695.8597002246
 21
237.6760421547001
 31
0.0
  0
LINE
  5
180E
330
254
100
AcDbEntity
  8
ALL_ASSEM_MEMBER
  6
Continuous
 62
     7
100
AcDbLine
 10
-89.81417067059988
 20
244.0545955857001
 30
0.0
 11
-89.81417067059988
 21
250.4545955857
 31
0.0
  0
LINE
  5
1814
330
254
100
AcDbEntity
  8
ALL_ASSEM_MEMBER
  6
Continuous
 62
     7
100
AcDbLine
 10
-81.3141706706001
 20
244.0545955857001
 30
0.0
 11
-81.3141706706001
 21
249.4545955857002
 31
0.0
  0
LINE
  5
181D
330
254
100
AcDbEntity
  8
ALL_ASSEM_MEMBER
  6
Continuous
 62
     7
100
AcDbLine
 10
-72.8141706706001
 20
244.0545955857001
 30
0.0
 11
-72.8141706706001
 21
250.4545955857
 31
0.0
  0
LWPOLYLINE
  5
1829
330
254
100
AcDbEntity
  8
ALL_ASSEM_MEMBER
  6
Continuous
 62
     7
100
AcDbPolyline
 90
       10
 70
     0
 43
0.0
 10
-754.0753824971
 20
250.4545955857
 10
-754.3117183156
 20
250.3784047577001
 10
-754.5497829566
 20
250.2939186317001
 10
-754.7899550376
 20
250.2010351652
 10
-755.0326610186
 20
250.0996039932001
 10
-755.2783798935999
 20
249.9894183567
 10
-755.5276455000999
 20
249.8702079712
 10
-755.7810512421
 20
249.7416308656998
 10
-756.0392554595999
 20
249.6032647077
 10
-756.3029908101
 20
249.4545955857002
  0
LWPOLYLINE
  5
182A
330
254
100
AcDbEntity
  8
ALL_ASSEM_MEMBER
  6
Continuous
 62
     7
100
AcDbPolyline
 90
       10
 70
     0
 43
0.0
 10
-745.5753824971
 20
250.4545955857
 10
-745.8117183156
 20
250.3784047577001
 10
-746.0497829566
 20
250.2939186317001
 10
-746.2899550376
 20
250.2010351652
 10
-746.5326610186
 20
250.0996039932001
 10
-746.7783798935999
 20
249.9894183567
 10
-747.0276455001001
 20
249.8702079712
 10
-747.2810512421001
 20
249.7416308656998
 10
-747.5392554595999
 20
249.6032647077
 10
-747.8029908100999
 20
249.4545955857002
  0
LINE
  5
186F
330
254
100
AcDbEntity
  8
ALL_ASSEM_MEMBER
  6
Continuous
 62
     7
100
AcDbLine
 10
-904.5585807401
 20
1161.4776440397
 30
0.0
 11
-624.5585807401
 21
1161.4776440397
 31
0.0
  0
LINE
  5
1870
330
254
100
AcDbEntity
  8
ALL_ASSEM_MEMBER
  6
Continuous
 62
     7
100
AcDbLine
 10
-204.5585807401001
 20
1161.4776440397
 30
0.0
 11
75.08431542790002
 21
1161.4776440397
 31
0.0
  0
LINE
  5
188A
330
254
100
AcDbEntity
  8
ALL_ASSEM_MEMBER
  6
Continuous
 62
     7
100
AcDbLine
 10
-621.0585807401
 20
1167.5545955857
 30
0.0
 11
-208.0585807400999
 21
1167.5545955857
 31
0.0
  0
LINE
  5
1893
330
254
100
AcDbEntity
  8
ALL_ASSEM_MEMBER
  6
Continuous
 62
     7
100
AcDbLine
 10
102.9414192598999
 20
197.5545955857
 30
0.0
 11
102.9414192598999
 21
232.5545955857
 31
0.0
  0
LINE
  5
1894
330
254
100
AcDbEntity
  8
ALL_ASSEM_MEMBER
  6
Continuous
 62
     7
100
AcDbLine
 10
104.9414192598999
 20
197.5545955857
 30
0.0
 11
104.9414192598999
 21
232.5545955857
 31
0.0
  0
LINE
  5
189B
330
254
100
AcDbEntity
  8
ALL_ASSEM_MEMBER
  6
Continuous
 62
     7
100
AcDbLine
 10
-94.81417067059988
 20
237.5545955857001
 30
0.0
 11
-89.81417067059988
 21
244.0545955857001
 31
0.0
  0
LWPOLYLINE
  5
18A3
330
254
100
AcDbEntity
  8
ALL_ASSEM_MEMBER
  6
Continuous
 62
     7
100
AcDbPolyline
 90
       10
 70
     0
 43
0.0
 10
-87.58656235760009
 20
250.4545955857
 10
-87.82289817660013
 20
250.3784047577001
 10
-88.06096281710006
 20
250.2939186317001
 10
-88.30113489809992
 20
250.2010351652
 10
-88.54384087909989
 20
250.0996039932001
 10
-88.78955975410008
 20
249.9894183567
 10
-89.03882536059994
 20
249.8702079712
 10
-89.2922311026
 20
249.7416308656998
 10
-89.55043532010018
 20
249.6032647077
 10
-89.81417067059988
 20
249.4545955857002
  0
LWPOLYLINE
  5
18A4
330
254
100
AcDbEntity
  8
ALL_ASSEM_MEMBER
  6
Continuous
 62
     7
100
AcDbPolyline
 90
       10
 70
     0
 43
0.0
 10
-79.08656235760009
 20
250.4545955857
 10
-79.32289817659989
 20
250.3784047577001
 10
-79.56096281710006
 20
250.2939186317001
 10
-79.8011348980999
 20
250.2010351652
 10
-80.04384087909987
 20
250.0996039932001
 10
-80.28955975409986
 20
249.9894183567
 10
-80.53882536059996
 20
249.8702079712
 10
-80.7922311026
 20
249.7416308656998
 10
-81.05043532010018
 20
249.6032647077
 10
-81.3141706706001
 20
249.4545955857002
  0
ARC
  5
2FBF
330
254
100
AcDbEntity
  8
ALL_ASSEM_MEMBER
  6
Continuous
 62
     7
100
AcDbCircle
 10
-707.0538097831
 20
311.3421244107001
 30
0.0
 40
67.0
100
AcDbArc
 50
304.1637206575992
 51
359.3162370604994
  0
ARC
  5
2FC0
330
254
100
AcDbEntity
  8
ALL_ASSEM_MEMBER
  6
Continuous
 62
     7
100
AcDbCircle
 10
-707.0538097831
 20
311.3421244107001
 30
0.0
 40
65.0
100
AcDbArc
 50
304.1571772245994
 51
359.3057972010997
  0
ARC
  5
2FC3
330
254
100
AcDbEntity
  8
ALL_ASSEM_MEMBER
  6
Continuous
 62
     7
100
AcDbCircle
 10
-702.6724956940999
 20
247.5545955857001
 30
0.0
 40
12.0
100
AcDbArc
 50
270.0
 51
304.5922886875002
  0
ARC
  5
2FC4
330
254
100
AcDbEntity
  8
ALL_ASSEM_MEMBER
  6
Continuous
 62
     7
100
AcDbCircle
 10
-702.6724956940999
 20
247.5545955857001
 30
0.0
 40
10.0
100
AcDbArc
 50
270.0
 51
304.5922886875002
  0
ARC
  5
2FC9
330
254
100
AcDbEntity
  8
ALL_ASSEM_MEMBER
  6
Continuous
 62
     7
100
AcDbCircle
 10
-929.0585807401001
 20
232.5545955857
 30
0.0
 40
5.0
100
AcDbArc
 50
90.0
 51
180.0
  0
ARC
  5
2FCF
330
254
100
AcDbEntity
  8
ALL_ASSEM_MEMBER
  6
Continuous
 62
     7
100
AcDbCircle
 10
-929.0585807401001
 20
232.5545955857
 30
0.0
 40
3.0
100
AcDbArc
 50
90.0
 51
180.0
  0
ARC
  5
3005
330
254
100
AcDbEntity
  8
ALL_ASSEM_MEMBER
  6
Continuous
 62
     7
100
AcDbCircle
 10
-621.0585807401
 20
1164.0545955857
 30
0.0
 40
3.5
100
AcDbArc
 50
90.0
 51
180.0
  0
ARC
  5
3027
330
254
100
AcDbEntity
  8
ALL_ASSEM_MEMBER
  6
Continuous
 62
     7
100
AcDbCircle
 10
-122.0633516976002
 20
311.3421244107001
 30
0.0
 40
67.0
100
AcDbArc
 50
180.6837629395004
 51
235.8362793424009
  0
ARC
  5
3028
330
254
100
AcDbEntity
  8
ALL_ASSEM_MEMBER
  6
Continuous
 62
     7
100
AcDbCircle
 10
-122.0633516976002
 20
311.3421244107001
 30
0.0
 40
65.0
100
AcDbArc
 50
180.6942027989004
 51
235.8428227754006
  0
ARC
  5
3029
330
254
100
AcDbEntity
  8
ALL_ASSEM_MEMBER
  6
Continuous
 62
     7
100
AcDbCircle
 10
-126.4446657866001
 20
247.5545955857001
 30
0.0
 40
12.0
100
AcDbArc
 50
235.4077113124998
 51
270.0
  0
ARC
  5
302A
330
254
100
AcDbEntity
  8
ALL_ASSEM_MEMBER
  6
Continuous
 62
     7
100
AcDbCircle
 10
-126.4446657866001
 20
247.5545955857001
 30
0.0
 40
10.0
100
AcDbArc
 50
235.4077113124998
 51
270.0
  0
ARC
  5
3042
330
254
100
AcDbEntity
  8
ALL_ASSEM_MEMBER
  6
Continuous
 62
     7
100
AcDbCircle
 10
99.94141925989993
 20
232.5545955857
 30
0.0
 40
5.0
100
AcDbArc
 50
0.0
 51
90.0
  0
ARC
  5
3044
330
254
100
AcDbEntity
  8
ALL_ASSEM_MEMBER
  6
Continuous
 62
     7
100
AcDbCircle
 10
99.94141925989993
 20
232.5545955857
 30
0.0
 40
3.0
100
AcDbArc
 50
0.0
 51
90.0
  0
ARC
  5
3067
330
254
100
AcDbEntity
  8
ALL_ASSEM_MEMBER
  6
Continuous
 62
     7
100
AcDbCircle
 10
-208.0585807400999
 20
1164.0545955857
 30
0.0
 40
3.5
100
AcDbArc
 50
0.0
 51
90.0
  0
LINE
  5
3334
330
254
100
AcDbEntity
  8
ALL_ASSEM_MEMBER
  6
Continuous
 62
     7
100
AcDbLine
 10
135.4414192598997
 20
1057.554595585848
 30
0.0
 11
75.44141925989993
 21
1161.4776440397
 31
0.0
  0
LINE
  5
3335
330
254
100
AcDbEntity
  8
ALL_ASSEM_MEMBER
  6
Continuous
 62
     7
100
AcDbLine
 10
135.4414192599001
 20
382.5545955852695
 30
0.0
 11
65.62218733939994
 21
282.8128356992002
 31
0.0
  0
LINE
  5
3336
330
254
100
AcDbEntity
  8
ALL_ASSEM_MEMBER
  6
Continuous
 62
     7
100
AcDbLine
 10
135.4414192598997
 20
1057.554595585848
 30
0.0
 11
135.4414192599001
 21
382.5545955852695
 31
0.0
  0
LINE
  5
3337
330
254
100
AcDbEntity
  8
0
100
AcDbLine
 10
-964.5585807400998
 20
1057.554595585848
 30
0.0
 11
135.4414192598997
 21
1057.554595585848
 31
0.0
  0
LINE
  5
3338
330
254
100
AcDbEntity
  8
ALL_ASSEM_MEMBER
  6
Continuous
 62
     7
100
AcDbLine
 10
99.94141925989993
 20
237.5545955857001
 30
0.0
 11
-126.4446657861001
 21
237.5545955857001
 31
0.0
  0
LINE
  5
3339
330
254
100
AcDbEntity
  8
0
100
AcDbLine
 10
-964.5585807401003
 20
382.5545955852695
 30
0.0
 11
135.4414192599001
 21
382.5545955852695
 31
0.0
  0
LINE
  5
333B
330
254
100
AcDbEntity
  8
0
100
AcDbLine
 10
-642.3760400453024
 20
1057.554595585848
 30
0.0
 11
-642.3760400453024
 21
382.5545955852695
 31
0.0
  0
LINE
  5
333C
330
254
100
AcDbEntity
  8
0
100
AcDbLine
 10
-894.5585807401
 20
282.5545955856297
 30
0.0
 11
-698.5507417788172
 21
282.5545955856297
 31
0.0
  0
LINE
  5
333F
330
254
100
AcDbEntity
  8
0
100
AcDbLine
 10
-642.3760400453024
 20
382.5545955852695
 30
0.0
 11
-621.0575326384703
 21
309.0296959982125
 31
0.0
  0
LINE
  5
3340
330
254
100
AcDbEntity
  8
0
100
AcDbLine
 10
-624.5585807401
 20
1161.4776440397
 30
0.0
 11
-204.5585807401001
 21
1161.477644039695
 31
0.0
  0
LINE
  5
3343
330
254
100
AcDbEntity
  8
0
100
AcDbLine
 10
-617.5232263029169
 20
1161.4776440397
 30
0.0
 11
-642.3760400453024
 21
1057.554595585848
 31
0.0
  0
LINE
  5
334D
330
254
100
AcDbEntity
  8
ALL_ASSEM_MEMBER
  6
Continuous
 62
     7
100
AcDbLine
 10
-329.2660101801
 20
219.5545955857
 30
0.0
 11
-321.2660101801
 21
219.5545955857
 31
0.0
  0
LINE
  5
334E
330
254
100
AcDbEntity
  8
ALL_ASSEM_MEMBER
  6
Continuous
 62
     7
100
AcDbLine
 10
-329.2660101801
 20
235.5545955857001
 30
0.0
 11
-329.2660101801
 21
219.5545955857
 31
0.0
  0
LINE
  5
334F
330
254
100
AcDbEntity
  8
ALL_ASSEM_MEMBER
  6
Continuous
 62
     7
100
AcDbLine
 10
-321.2660101801
 20
235.5545955857001
 30
0.0
 11
-321.2660101801
 21
219.5545955857
 31
0.0
  0
LINE
  5
3350
330
254
100
AcDbEntity
  8
ALL_ASSEM_MEMBER
  6
Continuous
 62
     7
100
AcDbLine
 10
-174.6067412310999
 20
219.5545955857
 30
0.0
 11
-166.6067412310999
 21
219.5545955857
 31
0.0
  0
LINE
  5
3351
330
254
100
AcDbEntity
  8
ALL_ASSEM_MEMBER
  6
Continuous
 62
     7
100
AcDbLine
 10
-174.6067412310999
 20
235.5545955857001
 30
0.0
 11
-174.6067412310999
 21
219.5545955857
 31
0.0
  0
LINE
  5
3352
330
254
100
AcDbEntity
  8
ALL_ASSEM_MEMBER
  6
Continuous
 62
     7
100
AcDbLine
 10
-166.6067412310999
 20
235.5545955857001
 30
0.0
 11
-166.6067412310999
 21
219.5545955857
 31
0.0
  0
LINE
  5
3353
330
254
100
AcDbEntity
  8
ALL_ASSEM_MEMBER
  6
Continuous
 62
     7
100
AcDbLine
 10
-85.3141706706001
 20
219.5545955857
 30
0.0
 11
-77.3141706706001
 21
219.5545955857
 31
0.0
  0
LINE
  5
3354
330
254
100
AcDbEntity
  8
ALL_ASSEM_MEMBER
  6
Continuous
 62
     7
100
AcDbLine
 10
-85.3141706706001
 20
235.5545955857001
 30
0.0
 11
-85.3141706706001
 21
219.5545955857
 31
0.0
  0
LINE
  5
3355
330
254
100
AcDbEntity
  8
ALL_ASSEM_MEMBER
  6
Continuous
 62
     7
100
AcDbLine
 10
-77.3141706706001
 20
235.5545955857001
 30
0.0
 11
-77.3141706706001
 21
219.5545955857
 31
0.0
  0
LINE
  5
3356
330
254
100
AcDbEntity
  8
ALL_ASSEM_MEMBER
  6
Continuous
 62
     7
100
AcDbLine
 10
-499.8511513001001
 20
219.5545955857
 30
0.0
 11
-507.8511513001001
 21
219.5545955857
 31
0.0
  0
LINE
  5
3357
330
254
100
AcDbEntity
  8
ALL_ASSEM_MEMBER
  6
Continuous
 62
     7
100
AcDbLine
 10
-499.8511513001001
 20
235.5545955857001
 30
0.0
 11
-499.8511513001001
 21
219.5545955857
 31
0.0
  0
LINE
  5
3358
330
254
100
AcDbEntity
  8
ALL_ASSEM_MEMBER
  6
Continuous
 62
     7
100
AcDbLine
 10
-507.8511513001001
 20
235.5545955857001
 30
0.0
 11
-507.8511513001001
 21
219.5545955857
 31
0.0
  0
LINE
  5
3359
330
254
100
AcDbEntity
  8
ALL_ASSEM_MEMBER
  6
Continuous
 62
     7
100
AcDbLine
 10
-654.5104202491001
 20
219.5545955857
 30
0.0
 11
-662.5104202491002
 21
219.5545955857
 31
0.0
  0
LINE
  5
335A
330
254
100
AcDbEntity
  8
ALL_ASSEM_MEMBER
  6
Continuous
 62
     7
100
AcDbLine
 10
-654.5104202491001
 20
235.5545955857001
 30
0.0
 11
-654.5104202491001
 21
219.5545955857
 31
0.0
  0
LINE
  5
335B
330
254
100
AcDbEntity
  8
ALL_ASSEM_MEMBER
  6
Continuous
 62
     7
100
AcDbLine
 10
-662.5104202491002
 20
235.5545955857001
 30
0.0
 11
-662.5104202491002
 21
219.5545955857
 31
0.0
  0
LINE
  5
335C
330
254
100
AcDbEntity
  8
ALL_ASSEM_MEMBER
  6
Continuous
 62
     7
100
AcDbLine
 10
-743.8029908096
 20
219.5545955857
 30
0.0
 11
-751.8029908096
 21
219.5545955857
 31
0.0
  0
LINE
  5
335D
330
254
100
AcDbEntity
  8
ALL_ASSEM_MEMBER
  6
Continuous
 62
     7
100
AcDbLine
 10
-743.8029908096
 20
235.5545955857001
 30
0.0
 11
-743.8029908096
 21
219.5545955857
 31
0.0
  0
LINE
  5
335E
330
254
100
AcDbEntity
  8
ALL_ASSEM_MEMBER
  6
Continuous
 62
     7
100
AcDbLine
 10
-751.8029908096
 20
235.5545955857001
 30
0.0
 11
-751.8029908096
 21
219.5545955857
 31
0.0
  0
LINE
  5
335F
330
254
100
AcDbEntity
  8
ALL_ASSEM_MEMBER
  6
Continuous
 62
     7
100
AcDbLine
 10
65.44141925989936
 20
237.5545955857001
 30
0.0
 11
65.44141925990004
 21
282.5545955856298
 31
0.0
  0
LINE
  5
3360
330
254
100
AcDbEntity
  8
0
100
AcDbLine
 10
65.44141925989993
 20
282.5545955856297
 30
0.0
 11
-76.36105892072098
 21
282.5545955856297
 31
0.0
  0
LINE
  5
3361
330
254
100
AcDbEntity
  8
0
100
AcDbLine
 10
-186.7411214348977
 20
1057.554595585848
 30
0.0
 11
-186.7411214348977
 21
382.5545955852695
 31
0.0
  0
LINE
  5
3362
330
254
100
AcDbEntity
  8
0
100
AcDbLine
 10
-186.7411214348977
 20
382.5545955852695
 30
0.0
 11
-207.719381244693
 21
310.2031679458244
 31
0.0
  0
LINE
  5
3363
330
254
100
AcDbEntity
  8
0
100
AcDbLine
 10
-211.5939351772833
 20
1161.4776440397
 30
0.0
 11
-186.7411214348977
 21
1057.554595585848
 31
0.0
  0
SPLINE
  5
3364
330
254
100
AcDbEntity
  8
0
100
AcDbSpline
210
0.0
220
0.0
230
1.0
 70
     8
 71
     3
 72
    17
 73
    13
 74
     0
 42
0.000000001
 43
0.0000000001
 40
25.78032018866214
 40
25.78032018866214
 40
25.78032018866214
 40
25.78032018866214
 40
69.17057921928829
 40
207.5488323232767
 40
289.3614539290842
 40
291.3614900757528
 40
365.72366479066
 40
553.3822024176554
 40
743.8269853158824
 40
745.8270214625493
 40
922.4287117559844
 40
1005.150406928944
 40
1005.150406928944
 40
1005.150406928944
 40
1005.150406928944
 10
-894.5585807400998
 20
250.6912045637953
 30
0.0
 10
-880.1693442102004
 20
250.9918084122768
 30
0.0
 10
-819.5247726952082
 20
251.807395164657
 30
0.0
 10
-725.6219228336126
 20
245.7584754987926
 30
0.0
 10
-668.722162313429
 20
310.8523782301666
 30
0.0
 10
-615.8868971445341
 20
310.2902709343766
 30
0.0
 10
-530.2202403303388
 20
284.888323339438
 30
0.0
 10
-377.4003577757718
 20
296.4724432333607
 30
0.0
 10
-251.8937725233624
 20
310.0485705036858
 30
0.0
 10
-128.8386931915022
 20
311.0173587003369
 30
0.0
 10
-48.84402144419613
 20
260.1980050885062
 30
0.0
 10
37.654974268895
 20
256.529717540086
 30
0.0
 10
65.44141925989972
 20
256.634895567076
 30
0.0
  0
LINE
  5
3374
330
254
100
AcDbEntity
  8
0
100
AcDbLine
 10
-934.0585807401
 20
17.39823461727428
 30
0.0
 11
-672.8760400453026
 21
17.39823461727428
 31
0.0
  0
LINE
  5
3375
330
254
100
AcDbEntity
  8
0
100
AcDbLine
 10
104.9414192598997
 20
17.39823461727428
 30
0.0
 11
104.9414192598997
 21
-243.7843060775235
 31
0.0
  0
LINE
  5
3376
330
254
100
AcDbEntity
  8
0
100
AcDbLine
 10
104.9414192598997
 20
-1021.601765382726
 30
0.0
 11
-156.2411214348981
 21
-1021.601765382726
 31
0.0
  0
LINE
  5
3377
330
254
100
AcDbEntity
  8
0
100
AcDbLine
 10
-934.0585807401003
 20
-1021.601765382726
 30
0.0
 11
-934.0585807401001
 21
-760.4192246879279
 31
0.0
  0
LINE
  5
3378
330
254
100
AcDbEntity
  8
02__ASM_ALL_AXES
  6
CENTER
 62
     2
100
AcDbLine
 10
-414.5585807401001
 20
67.89823461727423
 30
0.0
 11
-414.5585807401001
 21
-1072.101765382726
 31
0.0
  0
LINE
  5
3379
330
254
100
AcDbEntity
  8
02__ASM_ALL_AXES
  6
CENTER
 62
     2
100
AcDbLine
 10
-984.5585807401004
 20
-502.1017653827256
 30
0.0
 11
155.4414192598998
 21
-502.1017653827256
 31
0.0
  0
LWPOLYLINE
  5
337C
330
254
100
AcDbEntity
  8
0
100
AcDbPolyline
 90
        8
 70
     1
 43
0.0
 10
-964.5585807401003
 20
-729.9192246879279
 10
-642.3760400453028
 20
-1052.101765382726
 10
-186.7411214348983
 20
-1052.101765382726
 10
135.4414192598996
 20
-729.9192246879282
 10
135.4414192599
 20
-274.2843060775238
 10
-186.7411214348975
 20
47.89823461727417
 10
-642.3760400453025
 20
47.89823461727428
 10
-964.5585807401005
 20
-274.284306077524
  0
LWPOLYLINE
  5
337E
330
254
100
AcDbEntity
  8
0
100
AcDbPolyline
 90
        8
 70
     1
 43
0.0
 10
-904.5585807401002
 20
-705.0664109455421
 10
-617.523226302917
 20
-992.1017653827254
 10
-211.593935177284
 20
-992.1017653827258
 10
75.44141925989965
 20
-705.0664109455425
 10
75.44141925989993
 20
-299.1371198199095
 10
-211.5939351772833
 20
-12.10176538272589
 10
-617.5232263029167
 20
-12.10176538272577
 10
-904.5585807401003
 20
-299.1371198199097
  0
CIRCLE
  5
3385
330
254
100
AcDbEntity
  8
0
100
AcDbCircle
 10
-834.5585807401002
 20
-82.10176538272572
 30
0.0
 40
7.0
  0
CIRCLE
  5
3386
330
254
100
AcDbEntity
  8
0
100
AcDbCircle
 10
5.441419259899817
 20
-82.10176538272572
 30
0.0
 40
7.0
  0
CIRCLE
  5
3387
330
254
100
AcDbEntity
  8
0
100
AcDbCircle
 10
-834.5585807401002
 20
-922.1017653827262
 30
0.0
 40
7.0
  0
CIRCLE
  5
3388
330
254
100
AcDbEntity
  8
0
100
AcDbCircle
 10
5.441419259899817
 20
-922.1017653827262
 30
0.0
 40
7.0
  0
LINE
  5
3389
330
254
100
AcDbEntity
  8
0
100
AcDbLine
 10
-68.07625795869183
 20
550.8576728138006
 30
0.0
 11
80.41616609048299
 21
550.8576728138006
 31
0.0
  0
LINE
  5
338A
330
254
100
AcDbEntity
  8
0
100
AcDbLine
 10
-68.07625795869184
 20
432.6349363729342
 30
0.0
 11
80.41616609048299
 21
432.6349363729342
 31
0.0
  0
LINE
  5
338D
330
254
100
AcDbEntity
  8
0
100
AcDbLine
 10
-68.07625795869184
 20
432.6349363729342
 30
0.0
 11
-68.07625795869183
 21
550.8576728138006
 31
0.0
  0
LINE
  5
338F
330
254
100
AcDbEntity
  8
0
100
AcDbLine
 10
-4.436647651902652
 20
432.6349363729343
 30
0.0
 11
-4.436647651902639
 21
550.8576728138006
 31
0.0
  0
LINE
  5
3391
330
254
100
AcDbEntity
  8
0
100
AcDbLine
 10
80.41616609048299
 20
432.6349363729342
 30
0.0
 11
80.41616609048299
 21
550.8576728138006
 31
0.0
  0
LINE
  5
3392
330
254
100
AcDbEntity
  8
0
100
AcDbLine
 10
-14.43664765190265
 20
432.6349363729343
 30
0.0
 11
-14.43664765190264
 21
550.8576728138006
 31
0.0
  0
LINE
  5
3393
330
254
100
AcDbEntity
  8
0
100
AcDbLine
 10
-68.07625795869197
 20
-933.4369019065196
 30
0.0
 11
-4.436647651902802
 21
-997.0765122133089
 31
0.0
  0
LINE
  5
3394
330
254
100
AcDbEntity
  8
0
100
AcDbLine
 10
16.77655578369379
 20
-848.584088164134
 30
0.0
 11
80.41616609048293
 21
-912.2236984709232
 31
0.0
  0
LINE
  5
3395
330
254
100
AcDbEntity
  8
0
100
AcDbLine
 10
80.41616609048293
 20
-912.2236984709232
 30
0.0
 11
-4.436647651902726
 21
-997.0765122133089
 31
0.0
  0
LINE
  5
3396
330
254
100
AcDbEntity
  8
0
100
AcDbLine
 10
-672.8760400453027
 20
-1021.601765382726
 30
0.0
 11
-934.0585807401003
 21
-1021.601765382726
 31
0.0
  0
LINE
  5
3397
330
254
100
AcDbEntity
  8
0
100
AcDbLine
 10
-934.0585807401001
 20
-243.7843060775235
 30
0.0
 11
-934.0585807401
 21
17.39823461727428
 31
0.0
  0
LINE
  5
3398
330
254
100
AcDbEntity
  8
0
100
AcDbLine
 10
104.9414192598997
 20
-760.4192246879281
 30
0.0
 11
104.9414192598997
 21
-1021.601765382726
 31
0.0
  0
LINE
  5
3399
330
254
100
AcDbEntity
  8
0
100
AcDbLine
 10
-156.2411214348976
 20
17.39823461727428
 30
0.0
 11
104.9414192598997
 21
17.39823461727428
 31
0.0
  0
LINE
  5
339A
330
254
100
AcDbEntity
  8
0
100
AcDbLine
 10
-642.3760400453025
 20
47.89823461727428
 30
0.0
 11
-617.5232263029167
 21
-12.10176538272577
 31
0.0
  0
LINE
  5
339B
330
254
100
AcDbEntity
  8
0
100
AcDbLine
 10
-186.7411214348975
 20
47.89823461727417
 30
0.0
 11
-211.5939351772833
 21
-12.10176538272589
 31
0.0
  0
LINE
  5
339C
330
254
100
AcDbEntity
  8
0
100
AcDbLine
 10
-964.5585807401005
 20
-274.284306077524
 30
0.0
 11
-904.5585807401003
 21
-299.1371198199096
 31
0.0
  0
LINE
  5
339D
330
254
100
AcDbEntity
  8
0
100
AcDbLine
 10
75.44141925989993
 20
-299.1371198199095
 30
0.0
 11
135.4414192599
 21
-274.2843060775238
 31
0.0
  0
LINE
  5
339E
330
254
100
AcDbEntity
  8
0
100
AcDbLine
 10
-642.3760400453025
 20
-1052.101765382726
 30
0.0
 11
-617.5232263029166
 21
-992.101765382726
 31
0.0
  0
LINE
  5
339F
330
254
100
AcDbEntity
  8
0
100
AcDbLine
 10
-186.7411214348973
 20
-1052.101765382726
 30
0.0
 11
-211.593935177283
 21
-992.1017653827256
 31
0.0
  0
LINE
  5
33A0
330
254
100
AcDbEntity
  8
0
100
AcDbLine
 10
-964.5585807401005
 20
-729.9192246879279
 30
0.0
 11
-904.5585807401003
 21
-705.0664109455421
 31
0.0
  0
LINE
  5
33A1
330
254
100
AcDbEntity
  8
0
100
AcDbLine
 10
75.4414192599
 20
-705.0664109455417
 30
0.0
 11
135.4414192599
 21
-729.9192246879275
 31
0.0
  0
CIRCLE
  5
33A5
330
254
100
AcDbEntity
  8
0
100
AcDbCircle
 10
-414.5585807401003
 20
-502.1017653827256
 30
0.0
 40
255.0
  0
CIRCLE
  5
33A6
330
254
100
AcDbEntity
  8
0
100
AcDbCircle
 10
-414.5585807401003
 20
-502.1017653827256
 30
0.0
 40
404.0
  0
CIRCLE
  5
33A8
330
254
100
AcDbEntity
  8
0
100
AcDbCircle
 10
-414.5585807401001
 20
-502.1017653827256
 30
0.0
 40
210.0
  0
LINE
  5
33A9
330
254
100
AcDbEntity
  8
0
100
AcDbLine
 10
-934.0585807401
 20
1365.096603282235
 30
0.0
 11
104.9414192598997
 21
1365.096603282235
 31
0.0
  0
LINE
  5
33AC
330
254
100
AcDbEntity
  8
0
100
AcDbLine
 10
104.9414192598997
 20
1365.096603282235
 30
0.0
 11
104.9414192598997
 21
2404.096603282235
 31
0.0
  0
LINE
  5
33AE
330
254
100
AcDbEntity
  8
0
100
AcDbLine
 10
104.9414192598997
 20
2404.096603282235
 30
0.0
 11
-934.0585807401003
 21
2404.096603282235
 31
0.0
  0
LINE
  5
33B0
330
254
100
AcDbEntity
  8
0
100
AcDbLine
 10
-934.0585807401
 20
2404.096603282235
 30
0.0
 11
-934.0585807401
 21
1365.096603282235
 31
0.0
  0
LINE
  5
33B1
330
254
100
AcDbEntity
  8
02__ASM_ALL_AXES
  6
CENTER
 62
     2
100
AcDbLine
 10
-414.5585807401001
 20
1314.596603282235
 30
0.0
 11
-414.5585807401001
 21
2454.596603282235
 31
0.0
  0
LINE
  5
33B2
330
254
100
AcDbEntity
  8
02__ASM_ALL_AXES
  6
CENTER
 62
     2
100
AcDbLine
 10
-984.5585807401004
 20
1884.596603282235
 30
0.0
 11
155.4414192598998
 21
1884.596603282235
 31
0.0
  0
LWPOLYLINE
  5
33B3
330
254
100
AcDbEntity
  8
0
100
AcDbPolyline
 90
        4
 70
     0
 43
0.0
 10
-672.8760400453027
 20
2404.096603282235
 10
-642.3760400453028
 20
2434.596603282235
 10
-186.7411214348983
 20
2434.596603282235
 10
-156.2411214348983
 20
2404.096603282235
  0
CIRCLE
  5
33B5
330
254
100
AcDbEntity
  8
0
100
AcDbCircle
 10
-834.5585807401002
 20
1464.596603282235
 30
0.0
 40
7.0
  0
CIRCLE
  5
33B6
330
254
100
AcDbEntity
  8
0
100
AcDbCircle
 10
5.441419259899817
 20
1464.596603282235
 30
0.0
 40
7.0
  0
CIRCLE
  5
33B7
330
254
100
AcDbEntity
  8
0
100
AcDbCircle
 10
-834.5585807401002
 20
2304.596603282235
 30
0.0
 40
7.0
  0
CIRCLE
  5
33B8
330
254
100
AcDbEntity
  8
0
100
AcDbCircle
 10
5.441419259899817
 20
2304.596603282235
 30
0.0
 40
7.0
  0
LINE
  5
33BC
330
254
100
AcDbEntity
  8
0
100
AcDbLine
 10
-642.3760400453025
 20
1334.596603282235
 30
0.0
 11
-629.742526392923
 21
1365.096603282235
 31
0.0
  0
LINE
  5
33BD
330
254
100
AcDbEntity
  8
0
100
AcDbLine
 10
-186.7411214348975
 20
1334.596603282235
 30
0.0
 11
-199.3746350872768
 21
1365.096603282234
 31
0.0
  0
LINE
  5
33BE
330
254
100
AcDbEntity
  8
0
100
AcDbLine
 10
-964.5585807401005
 20
1656.779143977033
 30
0.0
 11
-934.0585807401
 21
1669.412657629413
 31
0.0
  0
LINE
  5
33BF
330
254
100
AcDbEntity
  8
0
100
AcDbLine
 10
104.9414192598997
 20
1669.412657629412
 30
0.0
 11
135.4414192599
 21
1656.779143977033
 31
0.0
  0
LINE
  5
33C0
330
254
100
AcDbEntity
  8
0
100
AcDbLine
 10
-642.3760400453025
 20
2434.596603282236
 30
0.0
 11
-629.7425263929227
 21
2404.096603282235
 31
0.0
  0
LINE
  5
33C1
330
254
100
AcDbEntity
  8
0
100
AcDbLine
 10
-186.7411214348973
 20
2434.596603282235
 30
0.0
 11
-199.3746350872768
 21
2404.096603282235
 31
0.0
  0
LINE
  5
33C2
330
254
100
AcDbEntity
  8
0
100
AcDbLine
 10
-964.5585807401005
 20
2112.414062587437
 30
0.0
 11
-934.0585807401
 21
2099.780548935058
 31
0.0
  0
LINE
  5
33C3
330
254
100
AcDbEntity
  8
0
100
AcDbLine
 10
104.9414192598997
 20
2099.780548935057
 30
0.0
 11
135.4414192599
 21
2112.414062587436
 31
0.0
  0
LWPOLYLINE
  5
33C7
330
254
100
AcDbEntity
  8
0
100
AcDbPolyline
 90
        4
 70
     0
 43
0.0
 10
104.9414192598997
 20
2142.914062587438
 10
135.4414192598996
 20
2112.414062587438
 10
135.4414192599
 20
1656.779143977033
 10
104.9414192598997
 20
1626.279143977032
  0
LWPOLYLINE
  5
33C8
330
254
100
AcDbEntity
  8
0
100
AcDbPolyline
 90
        4
 70
     0
 43
0.0
 10
-156.2411214348977
 20
1365.096603282235
 10
-186.7411214348975
 20
1334.596603282235
 10
-642.3760400453025
 20
1334.596603282235
 10
-672.8760400453026
 20
1365.096603282235
  0
LWPOLYLINE
  5
33C9
330
254
100
AcDbEntity
  8
0
100
AcDbPolyline
 90
        4
 70
     0
 43
0.0
 10
-934.0585807401001
 20
1626.279143977032
 10
-964.5585807401005
 20
1656.779143977033
 10
-964.5585807401003
 20
2112.414062587437
 10
-934.0585807401003
 20
2142.914062587437
  0
CIRCLE
  5
33CB
330
254
100
AcDbEntity
  8
0
100
AcDbCircle
 10
-414.5585807401003
 20
1884.596603282235
 30
0.0
 40
225.5000000000168
  0
CIRCLE
  5
33CC
330
254
100
AcDbEntity
  8
02__ASM_ALL_AXES
  6
CENTER
 62
     2
100
AcDbCircle
 10
-414.5585807401003
 20
1884.596603282235
 30
0.0
 40
345.0
  0
INSERT
  5
33D6
102
{ACAD_REACTORS
330
33E3
102
}
330
254
100
AcDbEntity
  8
0
100
AcDbBlockReference
  2
*U61
 10
0.0
 20
0.0
 30
0.0
  0
LWPOLYLINE
  5
3463
330
254
100
AcDbEntity
  8
ALL_ASSEM_MEMBER
  6
Continuous
 62
     7
100
AcDbPolyline
 90
        8
 70
     0
 43
0.0
 10
-326.3738677231011
 20
-966.6289990550797
 10
-320.4297647040946
 20
-965.7754690320796
 10
-315.248511534104
 20
-964.7842949820796
 10
-310.483550643097
 20
-963.6191208440797
 10
-305.539913745102
 20
-962.1353423830797
 10
-300.0961575440958
 20
-960.2154828120797
 10
-294.0466310820919
 20
-957.7965411230797
 10
-285.5519940060758
 20
-954.0836084682318
  0
LINE
  5
3464
330
254
100
AcDbEntity
  8
ALL_ASSEM_MEMBER
  6
Continuous
 62
     7
100
AcDbLine
 10
-327.5525323140971
 20
-966.7687975390799
 30
0.0
 11
-326.3738677231011
 21
-966.6289990550797
 31
0.0
  0
LINE
  5
3465
330
254
100
AcDbEntity
  8
ALL_ASSEM_MEMBER
  6
Continuous
 62
     7
100
AcDbLine
 10
-327.4794326500994
 20
-966.7602491020797
 30
0.0
 11
-326.9102755800993
 21
-966.6936906030796
 31
0.0
  0
LINE
  5
3466
330
254
100
AcDbEntity
  8
ALL_ASSEM_MEMBER
  6
Continuous
 62
     7
100
AcDbLine
 10
-360.1165932111032
 20
-969.3183535630797
 30
0.0
 11
-358.8658254781037
 21
-969.1936423520797
 31
0.0
  0
LINE
  5
3467
330
254
100
AcDbEntity
  8
ALL_ASSEM_MEMBER
  6
Continuous
 62
     7
100
AcDbLine
 10
-359.2733385831014
 20
-969.2333787860796
 30
0.0
 11
-358.865320241093
 21
-969.1935936710796
 31
0.0
  0
LWPOLYLINE
  5
3468
330
254
100
AcDbEntity
  8
ALL_ASSEM_MEMBER
  6
Continuous
 62
     7
100
AcDbPolyline
 90
       18
 70
     0
 43
0.0
 10
-357.2064680921028
 20
-959.2044010420796
 10
-357.8974466051002
 20
-959.2611770990796
 10
-360.511796285107
 20
-959.4947173710796
 10
-363.0291225850958
 20
-959.7518449170797
 10
-365.4494031701031
 20
-960.0340924060796
 10
-367.7728759180898
 20
-960.3420535200795
 10
-369.9981469421034
 20
-960.6752142730797
 10
-372.1357306681018
 20
-961.0340871580797
 10
-374.1805599530924
 20
-961.4084544060798
 10
-376.1495378910983
 20
-961.7834789440797
 10
-378.0517639780953
 20
-962.1450628990796
 10
-379.8936138721035
 20
-962.4809066480796
 10
-381.6800300881002
 20
-962.7804519950796
 10
-383.4146570301016
 20
-963.0347527530798
 10
-385.0936620891005
 20
-963.2357713310797
 10
-386.7016333140998
 20
-963.3771996440797
 10
-388.219954337095
 20
-963.4570386030796
 10
-389.5585807190944
 20
-963.4785750760796
  0
LINE
  5
3469
330
254
100
AcDbEntity
  8
ALL_ASSEM_MEMBER
  6
Continuous
 62
     7
100
AcDbLine
 10
-357.265674490103
 20
-959.2091918670797
 30
0.0
 11
-357.7946941630941
 21
-959.2526126470797
 31
0.0
  0
LWPOLYLINE
  5
346A
330
254
100
AcDbEntity
  8
ALL_ASSEM_MEMBER
  6
Continuous
 62
     7
100
AcDbPolyline
 90
        5
 70
     0
 43
0.0
 10
-358.865320241093
 20
-969.1935936710796
 10
-351.653514048099
 20
-968.6037047000798
 10
-343.6988965661001
 20
-968.0872201900797
 10
-335.4393647401009
 20
-967.5179031310797
 10
-327.5525323140971
 20
-966.7687975390799
  0
LINE
  5
346B
330
254
100
AcDbEntity
  8
ALL_ASSEM_MEMBER
  6
Continuous
 62
     7
100
AcDbLine
 10
-333.6641422851024
 20
-957.6441874420796
 30
0.0
 11
-334.7552036430932
 21
-957.7329462950798
 31
0.0
  0
LINE
  5
346C
330
254
100
AcDbEntity
  8
ALL_ASSEM_MEMBER
  6
Continuous
 62
     7
100
AcDbLine
 10
-350.8044875640915
 20
-958.7519891890798
 30
0.0
 11
-357.265674490103
 21
-959.2091918670797
 31
0.0
  0
LWPOLYLINE
  5
346D
330
254
100
AcDbEntity
  8
ALL_ASSEM_MEMBER
  6
Continuous
 62
     7
100
AcDbPolyline
 90
        3
 70
     0
 43
0.0
 10
-334.7552235520995
 20
-957.7326528500798
 10
-342.4912735941032
 20
-958.2575160820796
 10
-350.8044875640915
 20
-958.7519891890798
  0
LWPOLYLINE
  5
346E
330
254
100
AcDbEntity
  8
ALL_ASSEM_MEMBER
  6
Continuous
 62
     7
100
AcDbPolyline
 90
       13
 70
     0
 43
0.0
 10
-389.5585807190944
 20
-973.4261879620797
 10
-387.6656067361034
 20
-973.3836331650795
 10
-385.6243625581044
 20
-973.2565244740797
 10
-383.5226122341044
 20
-973.0466296020797
 10
-381.3592825360972
 20
-972.7584987520797
 10
-379.1298944840962
 20
-972.3996814370796
 10
-376.824458870098
 20
-971.9808466620797
 10
-374.4305358690979
 20
-971.5173315550796
 10
-371.9236913860948
 20
-971.0292163960795
 10
-369.2825088240931
 20
-970.5474480300797
 10
-366.4522670600998
 20
-970.0989549860795
 10
-363.4057617970973
 20
-969.6893942470797
 10
-360.1165932111032
 20
-969.3183535630797
  0
LINE
  5
346F
330
254
100
AcDbEntity
  8
ALL_ASSEM_MEMBER
  6
Continuous
 62
     7
100
AcDbLine
 10
-417.0585807401001
 20
-992.45238151908
 30
0.0
 11
-412.0585807401
 21
-992.45238151908
 31
0.0
  0
LINE
  5
3470
330
254
100
AcDbEntity
  8
ALL_ASSEM_MEMBER
  6
Continuous
 62
     7
100
AcDbLine
 10
-417.5585807401001
 20
-991.9523815190796
 30
0.0
 11
-411.5585807400927
 21
-991.9523815190796
 31
0.0
  0
LINE
  5
3471
330
254
100
AcDbEntity
  8
ALL_ASSEM_MEMBER
  6
Continuous
 62
     7
100
AcDbLine
 10
-419.3320834320909
 20
-983.3523815190797
 30
0.0
 11
-409.7850780481019
 21
-983.3523815190797
 31
0.0
  0
LINE
  5
3472
330
254
100
AcDbEntity
  8
ALL_ASSEM_MEMBER
  6
Continuous
 62
     7
100
AcDbLine
 10
-284.2327150320996
 20
-979.1523815190798
 30
0.0
 11
-408.9850780481063
 21
-979.1523815190798
 31
0.0
  0
LINE
  5
3474
330
254
100
AcDbEntity
  8
ALL_ASSEM_MEMBER
  6
Continuous
 62
     7
100
AcDbLine
 10
-420.5585803180944
 20
-973.9523815190796
 30
0.0
 11
-389.5585807401001
 21
-973.9523815190796
 31
0.0
  0
LINE
  5
3475
330
254
100
AcDbEntity
  8
ALL_ASSEM_MEMBER
  6
Continuous
 62
     7
100
AcDbLine
 10
-401.5585807400928
 20
-972.6950222060796
 30
0.0
 11
-389.5585807401001
 21
-972.6950222060796
 31
0.0
  0
LINE
  5
3476
330
254
100
AcDbEntity
  8
ALL_ASSEM_MEMBER
  6
Continuous
 62
     7
100
AcDbLine
 10
-420.5585803180944
 20
-972.4523815190798
 30
0.0
 11
-401.5585807400928
 21
-972.4523815190798
 31
0.0
  0
LINE
  5
3477
330
254
100
AcDbEntity
  8
ALL_ASSEM_MEMBER
  6
Continuous
 62
     7
100
AcDbLine
 10
-409.7850780481019
 20
-968.4523815190797
 30
0.0
 11
-419.3320834320909
 21
-968.4523815190797
 31
0.0
  0
LINE
  5
3478
330
254
100
AcDbEntity
  8
ALL_ASSEM_MEMBER
  6
Continuous
 62
     7
100
AcDbLine
 10
-401.5585807400928
 20
-962.9523815190797
 30
0.0
 11
-389.5585807401001
 21
-962.9523815190797
 31
0.0
  0
LWPOLYLINE
  5
347A
330
254
100
AcDbEntity
  8
ALL_ASSEM_MEMBER
  6
Continuous
 62
     7
100
AcDbPolyline
 90
       36
 70
     0
 43
0.0
 10
-417.4453320861064
 20
-982.3523815190796
 10
-417.2587698880959
 20
-982.4433652770796
 10
-417.0770706381006
 20
-982.5274209070795
 10
-416.899617483097
 20
-982.6049736850798
 10
-416.725861583094
 20
-982.6763790730797
 10
-416.5553075640998
 20
-982.7419341730799
 10
-416.3875158790976
 20
-982.8018816060797
 10
-416.2220914591014
 20
-982.8564185920796
 10
-416.0586797090943
 20
-982.9057025170797
 10
-415.8969591670972
 20
-982.9498570850798
 10
-415.736653598098
 20
-982.9889731100797
 10
-415.5775150030965
 20
-983.0231176050798
 10
-415.4193219321021
 20
-983.0523375820796
 10
-415.2618802721042
 20
-983.0766634560799
 10
-415.1050210250976
 20
-983.0961131440798
 10
-414.9485942780954
 20
-983.1106962230798
 10
-414.7924641251008
 20
-983.1204170560796
 10
-414.6365070831014
 20
-983.1252769970797
 10
-414.4806073381039
 20
-983.1252762630796
 10
-414.3246508220906
 20
-983.1204148820794
 10
-414.1685217281044
 20
-983.1106926860796
 10
-414.0120965590901
 20
-983.0961083750796
 10
-413.8552396181037
 20
-983.0766576630797
 10
-413.6978008520961
 20
-983.0523310170796
 10
-413.5396112940941
 20
-983.0231105800796
 10
-413.3804766840983
 20
-982.9889659550795
 10
-413.2201758781008
 20
-982.9498502490796
 10
-413.0584609690993
 20
-982.9056965400795
 10
-412.8950516260954
 20
-982.8564127850798
 10
-412.7296308280927
 20
-982.8018765310796
 10
-412.5618438231028
 20
-982.7419304300796
 10
-412.3912945000991
 20
-982.6763769270796
 10
-412.2175410530978
 20
-982.6049724370797
 10
-412.040089776099
 20
-982.5274204280797
 10
-411.8583914050975
 20
-982.4433651880795
 10
-411.6718293940937
 20
-982.3523815190796
  0
LWPOLYLINE
  5
347B
330
254
100
AcDbEntity
  8
ALL_ASSEM_MEMBER
  6
Continuous
 62
     7
100
AcDbPolyline
 90
       36
 70
     0
 43
0.0
 10
-411.6718293940937
 20
-969.4523815190796
 10
-411.8583914761036
 20
-969.3613978170796
 10
-412.0400906091015
 20
-969.2773422360797
 10
-412.2175436360992
 20
-969.1997895060797
 10
-412.3912994700947
 20
-969.12838413508
 10
-412.5618533891026
 20
-969.0628290610797
 10
-412.7296450700957
 20
-969.0028816150796
 10
-412.8950695430973
 20
-968.9483445980798
 10
-413.0584813241
 20
-968.8990606500796
 10
-413.220201964097
 20
-968.8549060440797
 10
-413.3805075780981
 20
-968.8157899980797
 10
-413.5396462120986
 20
-968.7816454860797
 10
-413.6978393180977
 20
-968.7524254960797
 10
-413.8552810241014
 20
-968.7280996080797
 10
-414.0121403181035
 20
-968.7086499090796
 10
-414.1685671121083
 20
-968.6940668230798
 10
-414.3246973140992
 20
-968.6843459840796
 10
-414.4806544020973
 20
-968.6794860420798
 10
-414.6365541950943
 20
-968.6794867760797
 10
-414.7925107550979
 20
-968.6843481610795
 10
-414.9486398941077
 20
-968.6940703640797
 10
-415.105065104093
 20
-968.7086546830795
 10
-415.2619220880949
 20
-968.7281054070799
 10
-415.4193608930943
 20
-968.7524320670798
 10
-415.5775504901027
 20
-968.7816525190797
 10
-415.7366851311015
 20
-968.8157971600796
 10
-415.8969859671048
 20
-968.8549128840797
 10
-416.0587008931031
 20
-968.8990666090798
 10
-416.2221102540931
 20
-968.9483503800797
 10
-416.3875310621076
 20
-969.0028866490798
 10
-416.5553180850982
 20
-969.0628327670797
 10
-416.7258673830945
 20
-969.1283862720798
 10
-416.8996207630986
 20
-969.1997907440796
 10
-417.0770719311037
 20
-969.2773427130797
 10
-417.2587701880981
 20
-969.3613979040797
 10
-417.4453320861064
 20
-969.4523815190796
  0
LWPOLYLINE
  5
347D
330
254
100
AcDbEntity
  8
ALL_ASSEM_MEMBER
  6
Continuous
 62
     7
100
AcDbPolyline
 90
       36
 70
     0
 43
0.0
 10
-420.3320834320981
 20
-982.3523815190796
 10
-420.2388023331002
 20
-982.4433652770796
 10
-420.1479527080953
 20
-982.5274209070795
 10
-420.0592261311028
 20
-982.6049736850798
 10
-419.97234818009
 20
-982.6763790730797
 10
-419.8870711710985
 20
-982.7419341730799
 10
-419.8031753281027
 20
-982.8018816060797
 10
-419.7204631180937
 20
-982.8564185920796
 10
-419.6387572440942
 20
-982.9057025170797
 10
-419.5578969720952
 20
-982.9498570850798
 10
-419.4777441881012
 20
-982.9889731100797
 10
-419.3981748900985
 20
-983.0231176050798
 10
-419.319078355096
 20
-983.0523375820796
 10
-419.2403575251007
 20
-983.0766634560799
 10
-419.1619279020958
 20
-983.0961131440798
 10
-419.0837145280964
 20
-983.1106962230798
 10
-419.0056494511079
 20
-983.1204170560796
 10
-418.9276709311013
 20
-983.1252769970797
 10
-418.8497210580969
 20
-983.1252762630796
 10
-418.7717428000903
 20
-983.1204148820794
 10
-418.6936782530972
 20
-983.1106926860796
 10
-418.6154656691067
 20
-983.0961083750796
 10
-418.5370371980968
 20
-983.0766576630797
 10
-418.4583178150931
 20
-983.0523310170796
 10
-418.3792230360993
 20
-983.0231105800796
 10
-418.2996557310977
 20
-982.9889659550795
 10
-418.2195053281027
 20
-982.9498502490796
 10
-418.1386478730998
 20
-982.9056965400795
 10
-418.0569432021
 20
-982.8564127850798
 10
-417.9742328030986
 20
-982.8018765310796
 10
-417.8903393000943
 20
-982.7419304300796
 10
-417.8050646390982
 20
-982.6763769270796
 10
-417.7181879151028
 20
-982.6049724370797
 10
-417.6294622770944
 20
-982.5274204280797
 10
-417.5386130910917
 20
-982.4433651880795
 10
-417.4453320861064
 20
-982.3523815190796
  0
LWPOLYLINE
  5
347E
330
254
100
AcDbEntity
  8
ALL_ASSEM_MEMBER
  6
Continuous
 62
     7
100
AcDbPolyline
 90
       36
 70
     0
 43
0.0
 10
-411.6718293940937
 20
-982.3523815190796
 10
-411.5785482950957
 20
-982.4433652770796
 10
-411.4876986700981
 20
-982.5274209070795
 10
-411.3989720930983
 20
-982.6049736850798
 10
-411.3120941421
 20
-982.6763790730797
 10
-411.226817133094
 20
-982.7419341730799
 10
-411.142921291095
 20
-982.8018816060797
 10
-411.0602090800965
 20
-982.8564185920796
 10
-410.9785032061043
 20
-982.9057025170797
 10
-410.897642934098
 20
-982.9498570850798
 10
-410.8174901500968
 20
-982.9889731100797
 10
-410.7379208531053
 20
-983.0231176050798
 10
-410.6588243170988
 20
-983.0523375820796
 10
-410.5801034871035
 20
-983.0766634560799
 10
-410.5016738640986
 20
-983.0961131440798
 10
-410.4234604900991
 20
-983.1106962230798
 10
-410.3453954141002
 20
-983.1204170560796
 10
-410.2674168930969
 20
-983.1252769970797
 10
-410.1894670200997
 20
-983.1252762630796
 10
-410.1114887621004
 20
-983.1204148820794
 10
-410.0334242150999
 20
-983.1106926860796
 10
-409.9552116310949
 20
-983.0961083750796
 10
-409.8767831600996
 20
-983.0766576630797
 10
-409.7980637771031
 20
-983.0523310170796
 10
-409.718968998102
 20
-983.0231105800796
 10
-409.6394016931006
 20
-982.9889659550795
 10
-409.5592512900982
 20
-982.9498502490796
 10
-409.4783938351026
 20
-982.9056965400795
 10
-409.3966891641027
 20
-982.8564127850798
 10
-409.3139787651014
 20
-982.8018765310796
 10
-409.2300852620971
 20
-982.7419304300796
 10
-409.1448106011082
 20
-982.6763769270796
 10
-409.0579338770983
 20
-982.6049724370797
 10
-408.9692082390972
 20
-982.5274204280797
 10
-408.8783590531018
 20
-982.4433651880795
 10
-408.7850780480946
 20
-982.3523815190796
  0
LWPOLYLINE
  5
347F
330
254
100
AcDbEntity
  8
ALL_ASSEM_MEMBER
  6
Continuous
 62
     7
100
AcDbPolyline
 90
       36
 70
     0
 43
0.0
 10
-417.4453320861064
 20
-969.4523815190796
 10
-417.5386131270931
 20
-969.3613978170796
 10
-417.6294626930973
 20
-969.2773422360797
 10
-417.7181892071018
 20
-969.1997895060797
 10
-417.8050671241069
 20
-969.12838413508
 10
-417.8903440831052
 20
-969.0628290610797
 10
-417.9742399241002
 20
-969.0028816150796
 10
-418.0569521600989
 20
-968.9483445980798
 10
-418.138658051095
 20
-968.8990606500796
 10
-418.2195183711007
 20
-968.8549060440797
 10
-418.2996711780941
 20
-968.8157899980797
 10
-418.3792404951016
 20
-968.7816454860797
 10
-418.4583370480975
 20
-968.7524254960797
 10
-418.5370579010993
 20
-968.7280996080797
 10
-418.6154875481004
 20
-968.7086499090796
 10
-418.6937009450991
 20
-968.6940668230798
 10
-418.7717660460982
 20
-968.6843459840796
 10
-418.8497445901009
 20
-968.6794860420798
 10
-418.9276944860973
 20
-968.6794867760797
 10
-419.0056727671032
 20
-968.6843481610795
 10
-419.0837373360989
 20
-968.6940703640797
 10
-419.1619499411023
 20
-968.7086546830795
 10
-419.2403784330961
 20
-968.7281054070799
 10
-419.3190978350973
 20
-968.7524320670798
 10
-419.3981926341
 20
-968.7816525190797
 10
-419.4777599540973
 20
-968.8157971600796
 10
-419.5579103730994
 20
-968.8549128840797
 10
-419.6387678351018
 20
-968.8990666090798
 10
-419.7204725160989
 20
-968.9483503800797
 10
-419.8031829200988
 20
-969.0028866490798
 10
-419.8870764321034
 20
-969.0628327670797
 10
-419.9723510800975
 20
-969.1283862720798
 10
-420.0592277710963
 20
-969.1997907440796
 10
-420.1479533540984
 20
-969.2773427130797
 10
-420.238802483094
 20
-969.3613979040797
 10
-420.3320834320981
 20
-969.4523815190796
  0
LWPOLYLINE
  5
3480
330
254
100
AcDbEntity
  8
ALL_ASSEM_MEMBER
  6
Continuous
 62
     7
100
AcDbPolyline
 90
       36
 70
     0
 43
0.0
 10
-408.7850780480946
 20
-969.4523815190796
 10
-408.8783590890959
 20
-969.3613978170796
 10
-408.9692086551001
 20
-969.2773422360797
 10
-409.0579351690974
 20
-969.1997895060797
 10
-409.1448130860952
 20
-969.12838413508
 10
-409.2300900450934
 20
-969.0628290610797
 10
-409.3139858860956
 20
-969.0028816150796
 10
-409.3966981230912
 20
-968.9483445980798
 10
-409.4784040131051
 20
-968.8990606500796
 10
-409.5592643330962
 20
-968.8549060440797
 10
-409.6394171401041
 20
-968.8157899980797
 10
-409.7189864571044
 20
-968.7816454860797
 10
-409.7980830101002
 20
-968.7524254960797
 10
-409.8768038631021
 20
-968.7280996080797
 10
-409.9552335101032
 20
-968.7086499090796
 10
-410.0334469070946
 20
-968.6940668230798
 10
-410.111512008101
 20
-968.6843459840796
 10
-410.1894905520964
 20
-968.6794860420798
 10
-410.2674404490969
 20
-968.6794867760797
 10
-410.3454187290988
 20
-968.6843481610795
 10
-410.4234832980944
 20
-968.6940703640797
 10
-410.5016959030979
 20
-968.7086546830795
 10
-410.5801243950988
 20
-968.7281054070799
 10
-410.6588437971074
 20
-968.7524320670798
 10
-410.7379385960955
 20
-968.7816525190797
 10
-410.8175059170969
 20
-968.8157971600796
 10
-410.897656335095
 20
-968.8549128840797
 10
-410.97851379709
 20
-968.8990666090798
 10
-411.0602184781016
 20
-968.9483503800797
 10
-411.1429288820943
 20
-969.0028866490798
 10
-411.2268223940916
 20
-969.0628327670797
 10
-411.3120970421002
 20
-969.1283862720798
 10
-411.3989737330991
 20
-969.1997907440796
 10
-411.487699317098
 20
-969.2773427130797
 10
-411.5785484450968
 20
-969.3613979040797
 10
-411.6718293940937
 20
-969.4523815190796
  0
LINE
  5
3481
330
254
100
AcDbEntity
  8
ALL_ASSEM_MEMBER
  6
Continuous
 62
     7
100
AcDbLine
 10
-417.5585807401001
 20
-991.9523815190796
 30
0.0
 11
-417.0585807401001
 21
-992.45238151908
 31
0.0
  0
LINE
  5
3482
330
254
100
AcDbEntity
  8
ALL_ASSEM_MEMBER
  6
Continuous
 62
     7
100
AcDbLine
 10
-419.3320834320909
 20
-983.3523815190797
 30
0.0
 11
-420.3320834320981
 21
-982.3523815190796
 31
0.0
  0
LINE
  5
3483
330
254
100
AcDbEntity
  8
ALL_ASSEM_MEMBER
  6
Continuous
 62
     7
100
AcDbLine
 10
-408.7850780480946
 20
-979.3523815190797
 30
0.0
 11
-409.7850780481019
 21
-978.3523815190797
 31
0.0
  0
LINE
  5
3484
330
254
100
AcDbEntity
  8
ALL_ASSEM_MEMBER
  6
Continuous
 62
     7
100
AcDbLine
 10
-409.7850780481019
 20
-968.4523815190797
 30
0.0
 11
-408.7850780480946
 21
-969.4523815190796
 31
0.0
  0
LINE
  5
3488
330
254
100
AcDbEntity
  8
ALL_ASSEM_MEMBER
  6
Continuous
 62
     7
100
AcDbLine
 10
-424.5585807401
 20
-979.1523815190798
 30
0.0
 11
-424.5585807401
 21
-977.6523815190797
 31
0.0
  0
LINE
  5
3489
330
254
100
AcDbEntity
  8
ALL_ASSEM_MEMBER
  6
Continuous
 62
     7
100
AcDbLine
 10
-420.5585807400927
 20
-973.9523815190796
 30
0.0
 11
-420.5585807400927
 21
-972.4523815190798
 31
0.0
  0
LINE
  5
348A
330
254
100
AcDbEntity
  8
ALL_ASSEM_MEMBER
  6
Continuous
 62
     7
100
AcDbLine
 10
-420.3320834320981
 20
-979.3523815190797
 30
0.0
 11
-420.3320834320981
 21
-982.3523815190796
 31
0.0
  0
LINE
  5
348B
330
254
100
AcDbEntity
  8
ALL_ASSEM_MEMBER
  6
Continuous
 62
     7
100
AcDbLine
 10
-420.3320834320981
 20
-972.4523815190798
 30
0.0
 11
-420.3320834320981
 21
-969.4523815190796
 31
0.0
  0
LINE
  5
3490
330
254
100
AcDbEntity
  8
ALL_ASSEM_MEMBER
  6
Continuous
 62
     7
100
AcDbLine
 10
-417.5585807401001
 20
-973.9523815190796
 30
0.0
 11
-417.5585807401001
 21
-978.3523815190797
 31
0.0
  0
LINE
  5
3491
330
254
100
AcDbEntity
  8
ALL_ASSEM_MEMBER
  6
Continuous
 62
     7
100
AcDbLine
 10
-417.5585807401001
 20
-983.3523815190797
 30
0.0
 11
-417.5585807401001
 21
-991.9523815190796
 31
0.0
  0
LINE
  5
3492
330
254
100
AcDbEntity
  8
ALL_ASSEM_MEMBER
  6
Continuous
 62
     7
100
AcDbLine
 10
-417.4453320861064
 20
-979.3523815190797
 30
0.0
 11
-417.4453320861064
 21
-982.3523815190796
 31
0.0
  0
LINE
  5
3493
330
254
100
AcDbEntity
  8
ALL_ASSEM_MEMBER
  6
Continuous
 62
     7
100
AcDbLine
 10
-417.4453320861064
 20
-972.4523815190798
 30
0.0
 11
-417.4453320861064
 21
-969.4523815190796
 31
0.0
  0
LINE
  5
3494
330
254
100
AcDbEntity
  8
ALL_ASSEM_MEMBER
  6
Continuous
 62
     7
100
AcDbLine
 10
-411.6718293940937
 20
-979.3523815190797
 30
0.0
 11
-411.6718293940937
 21
-982.3523815190796
 31
0.0
  0
LINE
  5
3495
330
254
100
AcDbEntity
  8
ALL_ASSEM_MEMBER
  6
Continuous
 62
     7
100
AcDbLine
 10
-411.6718293940937
 20
-972.4523815190798
 30
0.0
 11
-411.6718293940937
 21
-969.4523815190796
 31
0.0
  0
LINE
  5
3496
330
254
100
AcDbEntity
  8
ALL_ASSEM_MEMBER
  6
Continuous
 62
     7
100
AcDbLine
 10
-411.5585807400927
 20
-973.9523815190796
 30
0.0
 11
-411.5585807400927
 21
-978.3523815190797
 31
0.0
  0
LINE
  5
3497
330
254
100
AcDbEntity
  8
ALL_ASSEM_MEMBER
  6
Continuous
 62
     7
100
AcDbLine
 10
-411.5585807400927
 20
-983.3523815190797
 30
0.0
 11
-411.5585807400927
 21
-991.9523815190796
 31
0.0
  0
LINE
  5
349C
330
254
100
AcDbEntity
  8
ALL_ASSEM_MEMBER
  6
Continuous
 62
     7
100
AcDbLine
 10
-408.7850780480946
 20
-979.3523815190797
 30
0.0
 11
-408.7850780480946
 21
-982.3523815190796
 31
0.0
  0
LINE
  5
349D
330
254
100
AcDbEntity
  8
ALL_ASSEM_MEMBER
  6
Continuous
 62
     7
100
AcDbLine
 10
-408.7850780480946
 20
-972.4523815190798
 30
0.0
 11
-408.7850780480946
 21
-969.4523815190796
 31
0.0
  0
LINE
  5
349E
330
254
100
AcDbEntity
  8
ALL_ASSEM_MEMBER
  6
Continuous
 62
     7
100
AcDbLine
 10
-404.5585807401001
 20
-979.1523815190798
 30
0.0
 11
-404.5585807401001
 21
-977.6523815190797
 31
0.0
  0
LINE
  5
349F
330
254
100
AcDbEntity
  8
ALL_ASSEM_MEMBER
  6
Continuous
 62
     7
100
AcDbLine
 10
-404.5585807401001
 20
-973.9523815190796
 30
0.0
 11
-404.5585807401001
 21
-972.4523815190798
 31
0.0
  0
LINE
  5
34A0
330
254
100
AcDbEntity
  8
ALL_ASSEM_MEMBER
  6
Continuous
 62
     7
100
AcDbLine
 10
-401.5585807400928
 20
-973.9523815190796
 30
0.0
 11
-401.5585807400928
 21
-962.9523819170797
 31
0.0
  0
LINE
  5
34A1
330
254
100
AcDbEntity
  8
ALL_ASSEM_MEMBER
  6
Continuous
 62
     7
100
AcDbLine
 10
-389.5585807401001
 20
-973.9523815190796
 30
0.0
 11
-389.5585807401001
 21
-962.9523819170797
 31
0.0
  0
LINE
  5
34A6
330
254
100
AcDbEntity
  8
ALL_ASSEM_MEMBER
  6
Continuous
 62
     7
100
AcDbLine
 10
-419.3320834320909
 20
-968.4523815190797
 30
0.0
 11
-420.3320834320981
 21
-969.4523815190796
 31
0.0
  0
LINE
  5
34A7
330
254
100
AcDbEntity
  8
ALL_ASSEM_MEMBER
  6
Continuous
 62
     7
100
AcDbLine
 10
-420.3320834320981
 20
-979.3523815190797
 30
0.0
 11
-419.3320834320909
 21
-978.3523815190797
 31
0.0
  0
LINE
  5
34A8
330
254
100
AcDbEntity
  8
ALL_ASSEM_MEMBER
  6
Continuous
 62
     7
100
AcDbLine
 10
-409.7850780481019
 20
-983.3523815190797
 30
0.0
 11
-408.7850780480946
 21
-982.3523815190796
 31
0.0
  0
LINE
  5
34A9
330
254
100
AcDbEntity
  8
ALL_ASSEM_MEMBER
  6
Continuous
 62
     7
100
AcDbLine
 10
-411.5585807400927
 20
-991.9523815190796
 30
0.0
 11
-412.0585807401
 21
-992.45238151908
 31
0.0
  0
LWPOLYLINE
  5
34AA
330
254
100
AcDbEntity
  8
ALL_ASSEM_MEMBER
  6
Continuous
 62
     7
100
AcDbPolyline
 90
       36
 70
     0
 43
0.0
 10
-420.3320834320981
 20
-979.3523815190797
 10
-420.2388023331002
 20
-979.2613977620797
 10
-420.1479527080953
 20
-979.1773421310796
 10
-420.0592261311028
 20
-979.0997893530796
 10
-419.97234818009
 20
-979.0283839660796
 10
-419.8870711710985
 20
-978.9628288650797
 10
-419.8031753281027
 20
-978.9028814330796
 10
-419.7204631180937
 20
-978.8483444470797
 10
-419.6387572440942
 20
-978.7990605210795
 10
-419.5578969720952
 20
-978.7549059540795
 10
-419.4777441881012
 20
-978.7157899280796
 10
-419.3981748900985
 20
-978.6816454330796
 10
-419.319078355096
 20
-978.6524254570796
 10
-419.2403575251007
 20
-978.6280995820797
 10
-419.1619279020958
 20
-978.6086498940798
 10
-419.0837145280964
 20
-978.5940668160797
 10
-419.0056494511079
 20
-978.5843459820796
 10
-418.9276709311013
 20
-978.5794860420796
 10
-418.8497210580969
 20
-978.5794867760796
 10
-418.7717428000903
 20
-978.5843481570795
 10
-418.6936782530972
 20
-978.5940703520797
 10
-418.6154656691067
 20
-978.6086546630796
 10
-418.5370371980968
 20
-978.6281053750796
 10
-418.4583178150931
 20
-978.6524320220797
 10
-418.3792230360993
 20
-978.6816524590797
 10
-418.2996557310977
 20
-978.7157970830797
 10
-418.2195053281027
 20
-978.7549127890796
 10
-418.1386478730998
 20
-978.7990664990795
 10
-418.0569432021
 20
-978.8483502540797
 10
-417.9742328030986
 20
-978.9028865080797
 10
-417.8903393000943
 20
-978.9628326080796
 10
-417.8050646390982
 20
-979.0283861120796
 10
-417.7181879151028
 20
-979.0997906020797
 10
-417.6294622770944
 20
-979.1773426110797
 10
-417.5386130910917
 20
-979.2613978500796
 10
-417.4453320861064
 20
-979.3523815190797
  0
LWPOLYLINE
  5
34AB
330
254
100
AcDbEntity
  8
ALL_ASSEM_MEMBER
  6
Continuous
 62
     7
100
AcDbPolyline
 90
       36
 70
     0
 43
0.0
 10
-411.6718293940937
 20
-979.3523815190797
 10
-411.5785482950957
 20
-979.2613977620797
 10
-411.4876986700981
 20
-979.1773421310796
 10
-411.3989720930983
 20
-979.0997893530796
 10
-411.3120941421
 20
-979.0283839660796
 10
-411.226817133094
 20
-978.9628288650797
 10
-411.142921291095
 20
-978.9028814330796
 10
-411.0602090800965
 20
-978.8483444470797
 10
-410.9785032061043
 20
-978.7990605210795
 10
-410.897642934098
 20
-978.7549059540795
 10
-410.8174901500968
 20
-978.7157899280796
 10
-410.7379208531053
 20
-978.6816454330796
 10
-410.6588243170988
 20
-978.6524254570796
 10
-410.5801034871035
 20
-978.6280995820797
 10
-410.5016738640986
 20
-978.6086498940798
 10
-410.4234604900991
 20
-978.5940668160797
 10
-410.3453954141002
 20
-978.5843459820796
 10
-410.2674168930969
 20
-978.5794860420796
 10
-410.1894670200997
 20
-978.5794867760796
 10
-410.1114887621004
 20
-978.5843481570795
 10
-410.0334242150999
 20
-978.5940703520797
 10
-409.9552116310949
 20
-978.6086546630796
 10
-409.8767831600996
 20
-978.6281053750796
 10
-409.7980637771031
 20
-978.6524320220797
 10
-409.718968998102
 20
-978.6816524590797
 10
-409.6394016931006
 20
-978.7157970830797
 10
-409.5592512900982
 20
-978.7549127890796
 10
-409.4783938351026
 20
-978.7990664990795
 10
-409.3966891641027
 20
-978.8483502540797
 10
-409.3139787651014
 20
-978.9028865080797
 10
-409.2300852620971
 20
-978.9628326080796
 10
-409.1448106011082
 20
-979.0283861120796
 10
-409.0579338770983
 20
-979.0997906020797
 10
-408.9692082390972
 20
-979.1773426110797
 10
-408.8783590531018
 20
-979.2613978500796
 10
-408.7850780480946
 20
-979.3523815190797
  0
LWPOLYLINE
  5
34AF
330
254
100
AcDbEntity
  8
ALL_ASSEM_MEMBER
  6
Continuous
 62
     7
100
AcDbPolyline
 90
       36
 70
     0
 43
0.0
 10
-417.4453320861064
 20
-979.3523815190797
 10
-417.2587698880959
 20
-979.2613977620797
 10
-417.0770706381006
 20
-979.1773421310796
 10
-416.899617483097
 20
-979.0997893530796
 10
-416.725861583094
 20
-979.0283839660796
 10
-416.5553075640998
 20
-978.9628288650797
 10
-416.3875158790976
 20
-978.9028814330796
 10
-416.2220914591014
 20
-978.8483444470797
 10
-416.0586797090943
 20
-978.7990605210795
 10
-415.8969591670972
 20
-978.7549059540795
 10
-415.736653598098
 20
-978.7157899280796
 10
-415.5775150030965
 20
-978.6816454330796
 10
-415.4193219321021
 20
-978.6524254570796
 10
-415.2618802721042
 20
-978.6280995820797
 10
-415.1050210250976
 20
-978.6086498940798
 10
-414.9485942780954
 20
-978.5940668160797
 10
-414.7924641251008
 20
-978.5843459820796
 10
-414.6365070831014
 20
-978.5794860420796
 10
-414.4806073381039
 20
-978.5794867760796
 10
-414.3246508220906
 20
-978.5843481570795
 10
-414.1685217281044
 20
-978.5940703520797
 10
-414.0120965590901
 20
-978.6086546630796
 10
-413.8552396181037
 20
-978.6281053750796
 10
-413.6978008520961
 20
-978.6524320220797
 10
-413.5396112940941
 20
-978.6816524590797
 10
-413.3804766840983
 20
-978.7157970830797
 10
-413.2201758781008
 20
-978.7549127890796
 10
-413.0584609690993
 20
-978.7990664990795
 10
-412.8950516260954
 20
-978.8483502540797
 10
-412.7296308280927
 20
-978.9028865080797
 10
-412.5618438231028
 20
-978.9628326080796
 10
-412.3912945000991
 20
-979.0283861120796
 10
-412.2175410530978
 20
-979.0997906020797
 10
-412.040089776099
 20
-979.1773426110797
 10
-411.8583914050975
 20
-979.2613978500796
 10
-411.6718293940937
 20
-979.3523815190797
  0
LINE
  5
34B9
330
254
100
AcDbEntity
  8
0
100
AcDbLine
 10
-409.7850780481019
 20
-978.3523815190797
 30
0.0
 11
-419.3320834320909
 21
-978.3523815190797
 31
0.0
  0
LINE
  5
34BA
330
254
100
AcDbEntity
  8
0
100
AcDbLine
 10
-420.0157871555964
 20
-979.0640866595797
 30
0.0
 11
-442.0913540783334
 21
-979.0640866595795
 31
0.0
  0
SPLINE
  5
34BC
330
254
100
AcDbEntity
  8
0
100
AcDbSpline
210
0.0
220
0.0
230
1.0
 70
    11
 71
     3
 72
    16
 73
    12
 74
     0
 42
0.000000001
 43
0.0000000001
 40
0.0
 40
0.0
 40
0.0
 40
0.0
 40
20.43889266616354
 40
70.23485523365748
 40
150.1323023933011
 40
178.0993993995228
 40
203.4719051323932
 40
260.6304338863191
 40
335.6927757107462
 40
368.5655256543959
 40
395.4296512319053
 40
395.4296512319053
 40
395.4296512319053
 40
395.4296512319146
 10
-286.3627560261047
 20
-952.3728339424579
 30
0.0
 10
-292.7032514112006
 20
-949.4198220558987
 30
0.0
 10
-314.4913092456212
 20
-939.27228785513
 30
0.0
 10
-362.1804421123764
 20
-955.2841251305414
 30
0.0
 10
-433.4641946697686
 20
-929.0730657094992
 30
0.0
 10
-444.1220776255338
 20
-978.0473548906039
 30
0.0
 10
-436.0946326822788
 20
-1019.138409184627
 30
0.0
 10
-369.2033412217191
 20
-1002.782547498159
 30
0.0
 10
-312.9307670361674
 20
-1021.976680975267
 30
0.0
 10
-280.9238414384648
 20
-982.3223405376531
 30
0.0
 10
-282.3779737177673
 20
-960.118295495396
 30
0.0
 10
-286.3627560261006
 20
-952.3728339424661
 30
0.0
  0
LWPOLYLINE
  5
34BD
330
254
100
AcDbEntity
  8
ALL_ASSEM_MEMBER
  6
Continuous
 62
     7
100
AcDbPolyline
 90
       12
 70
     0
 43
0.0
 10
-295.7514096854909
 20
-948.181958265574
 10
-297.0640833200958
 20
-948.7451705460797
 10
-301.0034572541042
 20
-950.3446409910797
 10
-304.8677228420999
 20
-951.7976293260797
 10
-308.6692591041062
 20
-953.0888639370797
 10
-312.4021104410929
 20
-954.2002081580797
 10
-316.0650182780953
 20
-955.1202590860796
 10
-319.6892942080956
 20
-955.8657981160796
 10
-323.2703290670904
 20
-956.4658075600798
 10
-326.7973834371003
 20
-956.9466108780797
 10
-330.2641529661048
 20
-957.3323384320795
 10
-333.6641422851024
 20
-957.6441874420796
  0
LINE
  5
34BF
330
254
100
AcDbEntity
  8
0
100
AcDbLine
 10
-283.8477523397909
 20
-977.6523815190797
 30
0.0
 11
-442.0775508816435
 21
-977.6523815190797
 31
0.0
  0
LINE
  5
34C0
330
254
100
AcDbEntity
  8
ALL_ASSEM_MEMBER
  6
Continuous
 62
     7
100
AcDbLine
 10
-205.6662048720972
 20
-507.1017653827258
 30
0.0
 11
-243.4509566080959
 21
-507.1017653827258
 31
0.0
  0
LINE
  5
34C1
330
254
100
AcDbEntity
  8
ALL_ASSEM_MEMBER
  6
Continuous
 62
     7
100
AcDbLine
 10
-585.6662048720972
 20
-507.1017653827257
 30
0.0
 11
-623.4509566080959
 21
-507.1017653827257
 31
0.0
  0
LINE
  5
34C2
330
254
100
AcDbEntity
  8
ALL_ASSEM_MEMBER
  6
Continuous
 62
     7
100
AcDbLine
 10
-205.6662048720972
 20
-497.1017653827258
 30
0.0
 11
-243.4509566080959
 21
-497.1017653827258
 31
0.0
  0
LINE
  5
34C3
330
254
100
AcDbEntity
  8
ALL_ASSEM_MEMBER
  6
Continuous
 62
     7
100
AcDbLine
 10
-585.6662048720972
 20
-497.1017653827257
 30
0.0
 11
-623.4509566080959
 21
-497.1017653827257
 31
0.0
  0
ARC
  5
34C4
330
254
100
AcDbEntity
  8
ALL_ASSEM_MEMBER
  6
Continuous
 62
     7
100
AcDbCircle
 10
-604.5585807401002
 20
-502.1017653827256
 30
0.0
 40
15.0
100
AcDbArc
 50
199.5261515299068
 51
340.4738484700932
  0
ARC
  5
34C5
330
254
100
AcDbEntity
  8
ALL_ASSEM_MEMBER
  6
Continuous
 62
     7
100
AcDbCircle
 10
-604.5585807401002
 20
-502.1017653827256
 30
0.0
 40
15.0
100
AcDbArc
 50
19.52615152990681
 51
160.4738484700932
  0
ARC
  5
34C6
330
254
100
AcDbEntity
  8
ALL_ASSEM_MEMBER
  6
Continuous
 62
     7
100
AcDbCircle
 10
-604.5585807401002
 20
-502.1017653827256
 30
0.0
 40
6.0
100
AcDbArc
 50
236.450522778177
 51
303.5494768178077
  0
ARC
  5
34C7
330
254
100
AcDbEntity
  8
ALL_ASSEM_MEMBER
  6
Continuous
 62
     7
100
AcDbCircle
 10
-604.5585807401002
 20
-502.1017653827256
 30
0.0
 40
6.0
100
AcDbArc
 50
56.45052277817704
 51
123.5494768178076
  0
ARC
  5
34C8
330
254
100
AcDbEntity
  8
ALL_ASSEM_MEMBER
  6
Continuous
 62
     7
100
AcDbCircle
 10
-604.5585807401002
 20
-502.1017653827256
 30
0.0
 40
5.299999446
100
AcDbArc
 50
250.7510870533075
 51
289.2488688587911
  0
ARC
  5
34C9
330
254
100
AcDbEntity
  8
ALL_ASSEM_MEMBER
  6
Continuous
 62
     7
100
AcDbCircle
 10
-604.5585807401002
 20
-502.1017653827256
 30
0.0
 40
5.299999446
100
AcDbArc
 50
70.7510870533075
 51
109.2488688587912
  0
ARC
  5
34CA
330
254
100
AcDbEntity
  8
ALL_ASSEM_MEMBER
  6
Continuous
 62
     7
100
AcDbCircle
 10
-585.6661367501
 20
-502.1017653827256
 30
0.0
 40
5.0
100
AcDbArc
 50
269.9999999789996
 51
90.00000002100042
  0
ARC
  5
34CB
330
254
100
AcDbEntity
  8
ALL_ASSEM_MEMBER
  6
Continuous
 62
     7
100
AcDbCircle
 10
-623.4510247300931
 20
-502.1017653827256
 30
0.0
 40
5.0
100
AcDbArc
 50
89.99999997899958
 51
270.0000000210004
  0
ARC
  5
34CC
330
254
100
AcDbEntity
  8
ALL_ASSEM_MEMBER
  6
Continuous
 62
     7
100
AcDbCircle
 10
-224.5585807401002
 20
-502.1017653827258
 30
0.0
 40
15.0
100
AcDbArc
 50
199.5261515299068
 51
340.4738484700932
  0
ARC
  5
34CD
330
254
100
AcDbEntity
  8
ALL_ASSEM_MEMBER
  6
Continuous
 62
     7
100
AcDbCircle
 10
-224.5585807401002
 20
-502.1017653827258
 30
0.0
 40
15.0
100
AcDbArc
 50
19.52615152990681
 51
160.4738484700932
  0
ARC
  5
34CE
330
254
100
AcDbEntity
  8
ALL_ASSEM_MEMBER
  6
Continuous
 62
     7
100
AcDbCircle
 10
-224.5585807401002
 20
-502.1017653827258
 30
0.0
 40
6.0
100
AcDbArc
 50
56.45052277817704
 51
123.5494768178076
  0
ARC
  5
34CF
330
254
100
AcDbEntity
  8
ALL_ASSEM_MEMBER
  6
Continuous
 62
     7
100
AcDbCircle
 10
-224.5585807401002
 20
-502.1017653827258
 30
0.0
 40
6.0
100
AcDbArc
 50
236.450522778177
 51
303.5494768178077
  0
ARC
  5
34D0
330
254
100
AcDbEntity
  8
ALL_ASSEM_MEMBER
  6
Continuous
 62
     7
100
AcDbCircle
 10
-224.5585807401002
 20
-502.1017653827258
 30
0.0
 40
5.299999446
100
AcDbArc
 50
70.7510870533075
 51
109.2488688587912
  0
ARC
  5
34D1
330
254
100
AcDbEntity
  8
ALL_ASSEM_MEMBER
  6
Continuous
 62
     7
100
AcDbCircle
 10
-224.5585807401002
 20
-502.1017653827258
 30
0.0
 40
5.299999446
100
AcDbArc
 50
250.7510870533075
 51
289.2488688587911
  0
ARC
  5
34D2
330
254
100
AcDbEntity
  8
ALL_ASSEM_MEMBER
  6
Continuous
 62
     7
100
AcDbCircle
 10
-205.6661367501
 20
-502.1017653827258
 30
0.0
 40
5.0
100
AcDbArc
 50
269.9999999789996
 51
90.00000002100042
  0
ARC
  5
34D3
330
254
100
AcDbEntity
  8
ALL_ASSEM_MEMBER
  6
Continuous
 62
     7
100
AcDbCircle
 10
-243.4510247300931
 20
-502.1017653827258
 30
0.0
 40
5.0
100
AcDbArc
 50
89.99999997899958
 51
270.0000000210004
  0
LWPOLYLINE
  5
3699
330
254
100
AcDbEntity
  8
ALL_ASSEM_MEMBER
  6
Continuous
 62
     7
100
AcDbPolyline
 90
        5
 70
     0
 43
0.0
 10
-617.7703027690995
 20
1183.0499726387
 10
-618.1749630305994
 20
1182.5092222267
 10
-618.5158244715994
 20
1181.9054004782
 10
-618.7772181455994
 20
1181.2497205682
 10
-618.9417438620994
 20
1180.5545955857
  0
LINE
  5
369A
330
254
100
AcDbEntity
  8
ALL_ASSEM_MEMBER
  6
Continuous
 62
     7
100
AcDbLine
 10
-609.8585802665993
 20
1186.5545951117
 30
0.0
 11
-610.5585802035993
 21
1185.8545950492
 31
0.0
  0
LWPOLYLINE
  5
369B
330
254
100
AcDbEntity
  8
ALL_ASSEM_MEMBER
  6
Continuous
 62
     7
100
AcDbPolyline
 90
        7
 70
     0
 43
0.0
 10
-618.9417438620994
 20
1180.5545955857
 10
-619.0774763801008
 20
1179.7888968102
 10
-619.2230137096003
 20
1179.1337195312
 10
-619.3575042590992
 20
1178.6197074227
 10
-619.4657946446014
 20
1178.2500784402
 10
-619.535318564599
 20
1178.0290614697
 10
-619.5585807401012
 20
1177.9575829267
  0
LINE
  5
369C
330
254
100
AcDbEntity
  8
ALL_ASSEM_MEMBER
  6
Continuous
 62
     7
100
AcDbLine
 10
-619.5585807401012
 20
1172.5545955857
 30
0.0
 11
-619.5585807401012
 21
1177.9575829267
 31
0.0
  0
LINE
  5
369D
330
254
100
AcDbEntity
  8
ALL_ASSEM_MEMBER
  6
Continuous
 62
     7
100
AcDbLine
 10
-616.5585807401011
 20
1172.5545955857
 30
0.0
 11
-616.5585807401011
 21
1167.5545955857
 31
0.0
  0
LINE
  5
369E
330
254
100
AcDbEntity
  8
ALL_ASSEM_MEMBER
  6
Continuous
 62
     7
100
AcDbLine
 10
-610.5585807401012
 20
1185.8545955857
 30
0.0
 11
-610.5585807401012
 21
1184.5545955857
 31
0.0
  0
LINE
  5
369F
330
254
100
AcDbEntity
  8
ALL_ASSEM_MEMBER
  6
Continuous
 62
     7
100
AcDbLine
 10
-229.8585802665993
 20
1186.5545951117
 30
0.0
 11
-230.5585802035994
 21
1185.8545950492
 31
0.0
  0
LINE
  5
36A0
330
254
100
AcDbEntity
  8
ALL_ASSEM_MEMBER
  6
Continuous
 62
     7
100
AcDbLine
 10
-598.5585807400994
 20
1185.8545955857
 30
0.0
 11
-598.5585807400994
 21
1184.5545955857
 31
0.0
  0
LINE
  5
36A1
330
254
100
AcDbEntity
  8
ALL_ASSEM_MEMBER
  6
Continuous
 62
     7
100
AcDbLine
 10
-592.5585807400993
 20
1172.5545955857
 30
0.0
 11
-592.5585807400993
 21
1167.5545955857
 31
0.0
  0
LINE
  5
36A2
330
254
100
AcDbEntity
  8
ALL_ASSEM_MEMBER
  6
Continuous
 62
     7
100
AcDbLine
 10
-589.5585807401012
 20
1172.5545955857
 30
0.0
 11
-589.5585807401012
 21
1177.9575829267
 31
0.0
  0
LWPOLYLINE
  5
36A3
330
254
100
AcDbEntity
  8
ALL_ASSEM_MEMBER
  6
Continuous
 62
     7
100
AcDbPolyline
 90
        5
 70
     0
 43
0.0
 10
-237.7703027690996
 20
1183.0499726387
 10
-238.1749630305994
 20
1182.5092222267
 10
-238.5158244715995
 20
1181.9054004782
 10
-238.7772181455994
 20
1181.2497205682
 10
-238.9417438620994
 20
1180.5545955857
  0
LWPOLYLINE
  5
36A4
330
254
100
AcDbEntity
  8
ALL_ASSEM_MEMBER
  6
Continuous
 62
     7
100
AcDbPolyline
 90
        5
 70
     0
 43
0.0
 10
-590.1754176186013
 20
1180.5545955857
 10
-590.3399434250996
 20
1181.2497208497
 10
-590.6013372611005
 20
1181.9054010027
 10
-590.9421989170996
 20
1182.5092229417
 10
-591.3468588060996
 20
1183.0499725467
  0
LWPOLYLINE
  5
36A5
330
254
100
AcDbEntity
  8
ALL_ASSEM_MEMBER
  6
Continuous
 62
     7
100
AcDbPolyline
 90
        7
 70
     0
 43
0.0
 10
-589.5585807401012
 20
1177.9575829267
 10
-589.5818429155997
 20
1178.0290614697
 10
-589.6513668360994
 20
1178.2500784402
 10
-589.7596572210995
 20
1178.6197074227
 10
-589.8941477706002
 20
1179.1337195312
 10
-590.0396851005999
 20
1179.7888968102
 10
-590.1754176186013
 20
1180.5545955857
  0
LWPOLYLINE
  5
36A6
330
254
100
AcDbEntity
  8
ALL_ASSEM_MEMBER
  6
Continuous
 62
     7
100
AcDbPolyline
 90
        7
 70
     0
 43
0.0
 10
-238.9417438620994
 20
1180.5545955857
 10
-239.0774763801009
 20
1179.7888968102
 10
-239.2230137096003
 20
1179.1337195312
 10
-239.3575042590992
 20
1178.6197074227
 10
-239.4657946446014
 20
1178.2500784402
 10
-239.5353185645991
 20
1178.0290614697
 10
-239.5585807401012
 20
1177.9575829267
  0
LINE
  5
36A7
330
254
100
AcDbEntity
  8
ALL_ASSEM_MEMBER
  6
Continuous
 62
     7
100
AcDbLine
 10
-239.5585807401012
 20
1172.5545955857
 30
0.0
 11
-239.5585807401012
 21
1177.9575829267
 31
0.0
  0
LINE
  5
36A8
330
254
100
AcDbEntity
  8
ALL_ASSEM_MEMBER
  6
Continuous
 62
     7
100
AcDbLine
 10
-236.5585807401012
 20
1172.5545955857
 30
0.0
 11
-236.5585807401012
 21
1167.5545955857
 31
0.0
  0
LINE
  5
36A9
330
254
100
AcDbEntity
  8
ALL_ASSEM_MEMBER
  6
Continuous
 62
     7
100
AcDbLine
 10
-230.5585807401012
 20
1185.8545955857
 30
0.0
 11
-230.5585807401012
 21
1184.5545955857
 31
0.0
  0
LINE
  5
36AA
330
254
100
AcDbEntity
  8
ALL_ASSEM_MEMBER
  6
Continuous
 62
     7
100
AcDbLine
 10
-218.5585807400994
 20
1185.8545955857
 30
0.0
 11
-218.5585807400994
 21
1184.5545955857
 31
0.0
  0
LINE
  5
36AB
330
254
100
AcDbEntity
  8
ALL_ASSEM_MEMBER
  6
Continuous
 62
     7
100
AcDbLine
 10
-212.5585807400994
 20
1172.5545955857
 30
0.0
 11
-212.5585807400994
 21
1167.5545955857
 31
0.0
  0
LINE
  5
36AC
330
254
100
AcDbEntity
  8
ALL_ASSEM_MEMBER
  6
Continuous
 62
     7
100
AcDbLine
 10
-209.5585807401012
 20
1172.5545955857
 30
0.0
 11
-209.5585807401012
 21
1177.9575829267
 31
0.0
  0
LINE
  5
36AD
330
254
100
AcDbEntity
  8
ALL_ASSEM_MEMBER
  6
Continuous
 62
     7
100
AcDbLine
 10
-599.2585812140996
 20
1186.5545951117
 30
0.0
 11
-598.5585812771014
 21
1185.8545950492
 31
0.0
  0
LWPOLYLINE
  5
36AE
330
254
100
AcDbEntity
  8
ALL_ASSEM_MEMBER
  6
Continuous
 62
     7
100
AcDbPolyline
 90
        6
 70
     0
 43
0.0
 10
-591.3478229880992
 20
1183.0490293437
 10
-591.8384652731011
 20
1183.5513022392
 10
-592.3851978660995
 20
1183.9666558567
 10
-592.9818339145994
 20
1184.2836491732
 10
-593.6213438911009
 20
1184.4854652972
 10
-594.283573027601
 20
1184.5545955857
  0
LWPOLYLINE
  5
36AF
330
254
100
AcDbEntity
  8
ALL_ASSEM_MEMBER
  6
Continuous
 62
     7
100
AcDbPolyline
 90
        5
 70
     0
 43
0.0
 10
-210.1754176186014
 20
1180.5545955857
 10
-210.3399434250996
 20
1181.2497208497
 10
-210.6013372611005
 20
1181.9054010027
 10
-210.9421989170996
 20
1182.5092229417
 10
-211.3468588060996
 20
1183.0499725467
  0
LWPOLYLINE
  5
36B0
330
254
100
AcDbEntity
  8
ALL_ASSEM_MEMBER
  6
Continuous
 62
     7
100
AcDbPolyline
 90
        7
 70
     0
 43
0.0
 10
-209.5585807401012
 20
1177.9575829267
 10
-209.5818429155997
 20
1178.0290614697
 10
-209.6513668360994
 20
1178.2500784402
 10
-209.7596572210996
 20
1178.6197074227
 10
-209.8941477706003
 20
1179.1337195312
 10
-210.0396851005998
 20
1179.7888968102
 10
-210.1754176186014
 20
1180.5545955857
  0
LWPOLYLINE
  5
36B1
330
254
100
AcDbEntity
  8
ALL_ASSEM_MEMBER
  6
Continuous
 62
     7
100
AcDbPolyline
 90
        6
 70
     0
 43
0.0
 10
-234.8335884526014
 20
1184.5545955857
 10
-235.4957564010992
 20
1184.4854781492
 10
-236.1352438475996
 20
1184.2836846377
 10
-236.7318924641013
 20
1183.9667016652
 10
-237.2786492265996
 20
1183.5513437932
 10
-237.7697004166011
 20
1183.0493833772
  0
LWPOLYLINE
  5
36B2
330
254
100
AcDbEntity
  8
ALL_ASSEM_MEMBER
  6
Continuous
 62
     7
100
AcDbPolyline
 90
        6
 70
     0
 43
0.0
 10
-614.8335884526012
 20
1184.5545955857
 10
-615.4957564010992
 20
1184.4854781492
 10
-616.1352438475996
 20
1184.2836846377
 10
-616.7318924641013
 20
1183.9667016652
 10
-617.2786492265996
 20
1183.5513437932
 10
-617.7697004166012
 20
1183.0493833772
  0
LINE
  5
36B3
330
254
100
AcDbEntity
  8
ALL_ASSEM_MEMBER
  6
Continuous
 62
     7
100
AcDbLine
 10
-619.5585807401012
 20
1172.5545955857
 30
0.0
 11
-589.5585807401012
 21
1172.5545955857
 31
0.0
  0
LINE
  5
36B4
330
254
100
AcDbEntity
  8
ALL_ASSEM_MEMBER
  6
Continuous
 62
     7
100
AcDbLine
 10
-239.5585807401012
 20
1172.5545955857
 30
0.0
 11
-209.5585807401012
 21
1172.5545955857
 31
0.0
  0
LINE
  5
36B5
330
254
100
AcDbEntity
  8
ALL_ASSEM_MEMBER
  6
Continuous
 62
     7
100
AcDbLine
 10
-214.2835730276011
 20
1184.5545955857
 30
0.0
 11
-234.8335884526014
 21
1184.5545955857
 31
0.0
  0
LINE
  5
36B6
330
254
100
AcDbEntity
  8
ALL_ASSEM_MEMBER
  6
Continuous
 62
     7
100
AcDbLine
 10
-594.283573027601
 20
1184.5545955857
 30
0.0
 11
-614.8335884526012
 21
1184.5545955857
 31
0.0
  0
LINE
  5
36B7
330
254
100
AcDbEntity
  8
ALL_ASSEM_MEMBER
  6
Continuous
 62
     7
100
AcDbLine
 10
-610.5585807401012
 20
1185.8545955857
 30
0.0
 11
-598.5585807400994
 21
1185.8545955857
 31
0.0
  0
LINE
  5
36B8
330
254
100
AcDbEntity
  8
ALL_ASSEM_MEMBER
  6
Continuous
 62
     7
100
AcDbLine
 10
-230.5585807401012
 20
1185.8545955857
 30
0.0
 11
-218.5585807400994
 21
1185.8545955857
 31
0.0
  0
LINE
  5
36B9
330
254
100
AcDbEntity
  8
ALL_ASSEM_MEMBER
  6
Continuous
 62
     7
100
AcDbLine
 10
-609.8585807401004
 20
1186.5545955857
 30
0.0
 11
-599.2585807401001
 21
1186.5545955857
 31
0.0
  0
LINE
  5
36BA
330
254
100
AcDbEntity
  8
ALL_ASSEM_MEMBER
  6
Continuous
 62
     7
100
AcDbLine
 10
-229.8585807401005
 20
1186.5545955857
 30
0.0
 11
-219.2585807401001
 21
1186.5545955857
 31
0.0
  0
LINE
  5
36BB
330
254
100
AcDbEntity
  8
ALL_ASSEM_MEMBER
  6
Continuous
 62
     7
100
AcDbLine
 10
-219.2585812140996
 20
1186.5545951117
 30
0.0
 11
-218.5585812771015
 21
1185.8545950492
 31
0.0
  0
LWPOLYLINE
  5
36BC
330
254
100
AcDbEntity
  8
ALL_ASSEM_MEMBER
  6
Continuous
 62
     7
100
AcDbPolyline
 90
        6
 70
     0
 43
0.0
 10
-211.3478229880993
 20
1183.0490293437
 10
-211.8384652731011
 20
1183.5513022392
 10
-212.3851978660996
 20
1183.9666558567
 10
-212.9818339145995
 20
1184.2836491732
 10
-213.6213438911009
 20
1184.4854652972
 10
-214.2835730276011
 20
1184.5545955857
  0
ARC
  5
36BD
330
254
100
AcDbEntity
  8
ALL_ASSEM_MEMBER
  6
Continuous
 62
     7
100
AcDbCircle
 10
-604.5585807401011
 20
1196.5545955857
 30
0.0
 40
23.8924439905
100
AcDbArc
 50
308.8889935623899
 51
231.1110064376101
  0
ARC
  5
36BE
330
254
100
AcDbEntity
  8
ALL_ASSEM_MEMBER
  6
Continuous
 62
     7
100
AcDbCircle
 10
-604.5585807401011
 20
1196.5545955857
 30
0.0
 40
13.8924439885
100
AcDbArc
 50
300.2564371564001
 51
239.7435628436
  0
ARC
  5
36BF
330
254
100
AcDbEntity
  8
ALL_ASSEM_MEMBER
  6
Continuous
 62
     7
100
AcDbCircle
 10
-224.5585807401012
 20
1196.5545955857
 30
0.0
 40
23.8924439905
100
AcDbArc
 50
308.8889935623899
 51
231.1110064376101
  0
ARC
  5
36C0
330
254
100
AcDbEntity
  8
ALL_ASSEM_MEMBER
  6
Continuous
 62
     7
100
AcDbCircle
 10
-224.5585807401012
 20
1196.5545955857
 30
0.0
 40
13.8924439885
100
AcDbArc
 50
300.2564371564001
 51
239.7435628436
  0
LINE
  5
36EB
330
254
100
AcDbEntity
  8
0
100
AcDbLine
 10
102.9414192598997
 20
2402.096603282235
 30
0.0
 11
-932.0585807401
 21
2402.096603282235
 31
0.0
  0
LINE
  5
36EC
330
254
100
AcDbEntity
  8
0
100
AcDbLine
 10
-932.0585807401
 20
2402.096603282235
 30
0.0
 11
-932.0585807401
 21
1367.096603282235
 31
0.0
  0
LINE
  5
36ED
330
254
100
AcDbEntity
  8
0
100
AcDbLine
 10
102.9414192598997
 20
1367.096603282235
 30
0.0
 11
102.9414192598997
 21
2402.096603282235
 31
0.0
  0
LINE
  5
36EE
330
254
100
AcDbEntity
  8
0
100
AcDbLine
 10
-932.0585807401
 20
1367.096603282235
 30
0.0
 11
102.9414192598997
 21
1367.096603282235
 31
0.0
  0
CIRCLE
  5
3705
330
254
100
AcDbEntity
  8
0
100
AcDbCircle
 10
-414.5585807401001
 20
1884.596603282235
 30
0.0
 40
288.1139149539999
  0
VIEWPORT
  5
3789
330
255
100
AcDbEntity
 67
     1
  8
0
100
AcDbViewport
 10
297.0
 20
210.0
 30
0.0
 40
712.8
 41
504.0
 68
     1
 69
     1
 12
297.0
 22
210.0
 13
0.0
 23
0.0
 14
0.5
 24
0.5
 15
0.0
 25
0.0
 16
0.0
 26
0.0
 36
1.0
 17
0.0
 27
0.0
 37
0.0
 42
50.0
 43
0.0
 44
0.0
 45
504.0
 50
0.0
 51
0.0
 72
   100
 90
   557152
  1

281
     0
 71
     1
 74
     0
110
0.0
120
0.0
130
0.0
111
1.0
121
0.0
131
0.0
112
0.0
122
1.0
132
0.0
 79
     0
146
0.0
  0
VIEWPORT
  5
378A
330
255
100
AcDbEntity
 67
     1
  8
0
100
AcDbViewport
 10
297.0
 20
210.0
 30
0.0
 40
475.2
 41
336.0
 68
     2
 69
     2
 12
-414.5585807401002
 22
691.2474189497545
 13
0.0
 23
0.0
 14
0.5
 24
0.5
 15
0.0
 25
0.0
 16
0.0
 26
0.0
 36
1.0
 17
0.0
 27
0.0
 37
0.0
 42
50.0
 43
0.0
 44
0.0
 45
3597.23233603826
 50
0.0
 51
0.0
 72
   100
 90
   557152
  1

281
     0
 71
     1
 74
     0
110
0.0
120
0.0
130
0.0
111
1.0
121
0.0
131
0.0
112
0.0
122
1.0
132
0.0
 79
     0
146
0.0
  0
ENDSEC
  0
SECTION
  2
OBJECTS
  0
DICTIONARY
  5
C
330
0
100
AcDbDictionary
281
     1
  3
ACAD_ASSOCNETWORK
350
33DB
  3
ACAD_CIP_PREVIOUS_PRODUCT_INFO
350
3246
  3
ACAD_DETAILVIEWSTYLE
350
3243
  3
ACAD_GROUP
350
D
  3
ACAD_IMAGE_VARS
350
3203
  3
ACAD_LAYOUT
350
1A
  3
ACAD_MATERIAL
350
378D
  3
ACAD_MLINESTYLE
350
17
  3
ACAD_PLOTSETTINGS
350
19
  3
ACAD_PLOTSTYLENAME
350
E
  3
ACAD_SCALELIST
350
31C0
  3
ACAD_SECTIONVIEWSTYLE
350
3241
  3
AcDbVariableDictionary
350
3319
  3
AcDsDecomposeData
350
371D
  3
APPDATA
350
3201
  3
DWGPROPS
350
378C
  0
DICTIONARY
  5
336B
330
2
100
AcDbDictionary
280
     1
281
     1
  3
ACAD_LAYERSTATES
360
336C
  0
DICTIONARY
  5
3269
330
10
100
AcDbDictionary
280
     1
281
     1
  3
ADSK_XREC_LAYER_RECONCILED
360
326A
  0
DICTIONARY
  5
327D
330
203
100
AcDbDictionary
280
     1
281
     1
  3
ADSK_XREC_LAYER_RECONCILED
360
327E
  0
DICTIONARY
  5
32B5
330
21F
100
AcDbDictionary
280
     1
281
     1
  3
ADSK_XREC_LAYER_RECONCILED
360
32B6
  0
DICTIONARY
  5
3382
330
254
100
AcDbDictionary
280
     1
281
     1
  3
ACAD_ASSOCNETWORK
360
33D9
  3
ACAD_SORTENTS
360
3383
  0
DICTIONARY
  5
375B
330
33D3
100
AcDbDictionary
280
     1
281
     1
  3
AcDbBlockTableRecordData
360
375C
  0
DICTIONARY
  5
33DB
102
{ACAD_REACTORS
330
C
102
}
330
C
100
AcDbDictionary
281
     1
  3
ACAD_ASSOCNETWORK
350
33DC
  0
XRECORD
  5
3246
102
{ACAD_REACTORS
330
C
102
}
330
C
100
AcDbXrecord
280
     1
300
ACD
300
2015
300
ACD_F_S
  0
DICTIONARY
  5
3243
102
{ACAD_REACTORS
330
C
102
}
330
C
100
AcDbDictionary
281
     1
  3
Metric50
350
3244
  0
DICTIONARY
  5
D
102
{ACAD_REACTORS
330
C
102
}
330
C
100
AcDbDictionary
281
     1
  0
RASTERVARIABLES
  5
3203
102
{ACAD_REACTORS
330
C
102
}
330
C
100
AcDbRasterVariables
 90
        0
 70
     1
 71
     1
 72
     1
  0
DICTIONARY
  5
1A
102
{ACAD_REACTORS
330
C
102
}
330
C
100
AcDbDictionary
281
     1
  3
Layout1
350
31BE
  3
Model
350
31BD
  0
DICTIONARY
  5
378D
102
{ACAD_REACTORS
330
C
102
}
330
C
100
AcDbDictionary
281
     1
  3
ByBlock
350
378F
  3
ByLayer
350
378E
  3
Global
350
3790
  0
DICTIONARY
  5
17
102
{ACAD_REACTORS
330
C
102
}
330
C
100
AcDbDictionary
281
     1
  3
Standard
350
18
  0
DICTIONARY
  5
19
102
{ACAD_REACTORS
330
C
102
}
330
C
100
AcDbDictionary
281
     1
  0
ACDBDICTIONARYWDFLT
  5
E
102
{ACAD_REACTORS
330
C
102
}
330
C
100
AcDbDictionary
281
     1
  3
Normal
350
F
100
AcDbDictionaryWithDefault
340
F
  0
DICTIONARY
  5
31C0
102
{ACAD_REACTORS
330
C
102
}
330
C
100
AcDbDictionary
281
     1
  3
A0
350
31C1
  3
A1
350
31C2
  3
A2
350
31C3
  3
A3
350
31C4
  3
A4
350
31C5
  3
A5
350
31C6
  3
A6
350
31C7
  3
A7
350
31C8
  3
A8
350
31C9
  3
A9
350
31CA
  3
B0
350
31CB
  3
B1
350
31CC
  3
B2
350
31CD
  3
B3
350
31CE
  3
B4
350
31CF
  3
B5
350
31D0
  3
B6
350
31D1
  3
B7
350
31D2
  3
B8
350
31D3
  3
B9
350
31D4
  3
C0
350
31D5
  3
C1
350
31D6
  3
C2
350
31D7
  3
C3
350
31D8
  3
C4
350
31D9
  3
C5
350
31DA
  3
C6
350
31DB
  3
C7
350
31DC
  3
C8
350
31DD
  3
C9
350
31DE
  3
D0
350
31DF
  3
D1
350
31E0
  3
D2
350
31E1
  0
DICTIONARY
  5
3241
102
{ACAD_REACTORS
330
C
102
}
330
C
100
AcDbDictionary
281
     1
  3
Metric50
350
3242
  0
DICTIONARY
  5
3319
102
{ACAD_REACTORS
330
C
102
}
330
C
100
AcDbDictionary
281
     1
  3
DIMASSOC
350
3712
  3
INDEXCTL
350
3711
  3
SORTENTS
350
3710
  0
DICTIONARY
  5
371D
102
{ACAD_REACTORS
330
C
102
}
330
C
100
AcDbDictionary
281
     1
  3
AcDsRecords
350
371F
  3
AcDsSchemas
350
371E
1001
ACAD
1070
     2
  0
DICTIONARY
  5
3201
102
{ACAD_REACTORS
330
C
102
}
330
C
100
AcDbDictionary
281
     1
  0
XRECORD
  5
378C
102
{ACAD_REACTORS
330
C
102
}
330
C
100
AcDbXrecord
280
     1
  1
DWGPROPS COOKIE
  2

  3

  4

  6

  7

  8
d610igzo
  9

300
=
301
=
302
=
303
=
304
=
305
=
306
=
307
=
308
=
309
=
 40
0.0
 41
2457071.878731447
 42
2457072.612236042
  1

 90
        0
  0
DICTIONARY
  5
336C
102
{ACAD_REACTORS
330
336B
102
}
330
336B
100
AcDbDictionary
281
     1
  0
XRECORD
  5
326A
102
{ACAD_REACTORS
330
3269
102
}
330
3269
100
AcDbXrecord
280
     1
290
     1
  0
XRECORD
  5
327E
102
{ACAD_REACTORS
330
327D
102
}
330
327D
100
AcDbXrecord
280
     1
290
     1
  0
XRECORD
  5
32B6
102
{ACAD_REACTORS
330
32B5
102
}
330
32B5
100
AcDbXrecord
280
     1
290
     1
  0
DICTIONARY
  5
33D9
102
{ACAD_REACTORS
330
3382
102
}
330
3382
100
AcDbDictionary
281
     1
  3
ACAD_ASSOCNETWORK
350
33DA
  0
SORTENTSTABLE
  5
3383
102
{ACAD_REACTORS
330
3382
102
}
330
3382
100
AcDbSortentsTable
330
254
331
478
  5
478
331
489
  5
489
331
112F
  5
112F
331
113B
  5
113B
331
1147
  5
1147
331
114E
  5
114E
331
114F
  5
114F
331
1156
  5
1156
331
1157
  5
1157
331
1158
  5
1158
331
115B
  5
115B
331
116B
  5
116B
331
1193
  5
1193
331
1194
  5
1194
331
11A6
  5
11A6
331
11A7
  5
11A7
331
11B0
  5
11B0
331
11B1
  5
11B1
331
12D4
  5
12D4
331
12DB
  5
12DB
331
12E1
  5
12E1
331
13BE
  5
13BE
331
1404
  5
1404
331
1405
  5
1405
331
1406
  5
1406
331
1407
  5
1407
331
1614
  5
1614
331
16A1
  5
16A1
331
16C4
  5
16C4
331
17A9
  5
17A9
331
17CA
  5
17CA
331
17CB
  5
17CB
331
180E
  5
180E
331
1814
  5
1814
331
181D
  5
181D
331
1829
  5
1829
331
182A
  5
182A
331
186F
  5
186F
331
1870
  5
1870
331
188A
  5
188A
331
1893
  5
1893
331
1894
  5
1894
331
189B
  5
189B
331
18A3
  5
18A3
331
18A4
  5
18A4
331
2FBF
  5
2FBF
331
2FC0
  5
2FC0
331
2FC3
  5
2FC3
331
2FC4
  5
2FC4
331
2FC9
  5
2FC9
331
2FCF
  5
2FCF
331
3005
  5
3005
331
3027
  5
3027
331
3028
  5
3028
331
3029
  5
3029
331
302A
  5
302A
331
3042
  5
3042
331
3044
  5
3044
331
3067
  5
3067
331
3334
  5
3334
331
3335
  5
3335
331
3336
  5
3336
331
3337
  5
3337
331
3338
  5
3338
331
3339
  5
3339
331
333B
  5
333B
331
333C
  5
333C
331
333F
  5
333F
331
3340
  5
3340
331
3343
  5
3343
331
334D
  5
334D
331
334E
  5
334E
331
334F
  5
334F
331
3350
  5
3350
331
3351
  5
3351
331
3352
  5
3352
331
3353
  5
3353
331
3354
  5
3354
331
3355
  5
3355
331
3356
  5
3356
331
3357
  5
3357
331
3358
  5
3358
331
3359
  5
3359
331
335A
  5
335A
331
335B
  5
335B
331
335C
  5
335C
331
335D
  5
335D
331
335E
  5
335E
331
335F
  5
335F
331
3360
  5
3360
331
3361
  5
3361
331
3362
  5
3362
331
3363
  5
3363
331
3364
  5
3364
331
3374
  5
3374
331
3375
  5
3376
331
3376
  5
3378
331
3377
  5
3381
331
3378
  5
3389
331
3379
  5
338A
331
337C
  5
338B
331
337E
  5
338C
331
3385
  5
338D
331
3386
  5
338E
331
3387
  5
338F
331
3388
  5
3390
331
3389
  5
3391
331
338A
  5
3392
331
338D
  5
3393
331
338F
  5
3394
331
3391
  5
3396
331
3392
  5
3395
331
3393
  5
3397
331
3394
  5
3398
331
3395
  5
3399
331
3396
  5
337A
331
3397
  5
3386
331
3398
  5
3377
331
3399
  5
3375
331
339A
  5
339A
331
339B
  5
339B
331
339C
  5
339C
331
339D
  5
339D
331
339E
  5
339E
331
339F
  5
339F
331
33A0
  5
33A0
331
33A1
  5
33A1
331
33A5
  5
33A5
331
33A6
  5
33A6
331
33A8
  5
33A8
331
33A9
  5
33A9
331
33AC
  5
33AE
331
33AE
  5
33B1
331
33B0
  5
33B3
331
33B1
  5
33B5
331
33B2
  5
33B6
331
33B3
  5
33B8
331
33B5
  5
33BF
331
33B6
  5
33C0
331
33B7
  5
33C1
331
33B8
  5
33C2
331
33BC
  5
33C3
331
33BD
  5
33C4
331
33BE
  5
33C5
331
33BF
  5
33C6
331
33C0
  5
33CB
331
33C1
  5
33CC
331
33C2
  5
33D6
331
33C3
  5
3463
331
33C7
  5
33B9
331
33C8
  5
33BA
331
33C9
  5
33BB
331
33CB
  5
3464
331
33CC
  5
3465
331
33D6
  5
3466
331
3463
  5
3467
331
3464
  5
3468
331
3465
  5
3469
331
3466
  5
346A
331
3467
  5
346B
331
3468
  5
346C
331
3469
  5
346D
331
346A
  5
346E
331
346B
  5
346F
331
346C
  5
3470
331
346D
  5
3471
331
346E
  5
3472
331
346F
  5
3474
331
3470
  5
3475
331
3471
  5
3476
331
3472
  5
3477
331
3474
  5
3478
331
3475
  5
347A
331
3476
  5
347B
331
3477
  5
347D
331
3478
  5
347E
331
347A
  5
347F
331
347B
  5
3480
331
347D
  5
3481
331
347E
  5
3482
331
347F
  5
3483
331
3480
  5
3484
331
3481
  5
3488
331
3482
  5
3489
331
3483
  5
348A
331
3484
  5
348B
331
3488
  5
3490
331
3489
  5
3491
331
348A
  5
3492
331
348B
  5
3493
331
3490
  5
3494
331
3491
  5
3495
331
3492
  5
3496
331
3493
  5
3497
331
3494
  5
349C
331
3495
  5
349D
331
3496
  5
349E
331
3497
  5
349F
331
349C
  5
34A0
331
349D
  5
34A1
331
349E
  5
34A6
331
349F
  5
34A7
331
34A0
  5
34A8
331
34A1
  5
34A9
331
34A6
  5
34AA
331
34A7
  5
34AB
331
34A8
  5
34AF
331
34A9
  5
34B9
331
34AA
  5
34BA
331
34AB
  5
34BC
331
34AF
  5
34BD
331
34B9
  5
34C0
331
34BA
  5
34C1
331
34BC
  5
34C2
331
34BD
  5
34BF
331
34BF
  5
34C3
331
34C0
  5
34C4
331
34C1
  5
34C5
331
34C2
  5
34C6
331
34C3
  5
34C7
331
34C4
  5
34C8
331
34C5
  5
34C9
331
34C6
  5
34CA
331
34C7
  5
34CB
331
34C8
  5
34CC
331
34C9
  5
34CD
331
34CA
  5
34CE
331
34CB
  5
34CF
331
34CC
  5
34D0
331
34CD
  5
34D1
331
34CE
  5
34D2
331
34CF
  5
34D3
331
34D0
  5
3699
331
34D1
  5
369A
331
34D2
  5
369B
331
34D3
  5
369C
331
3699
  5
369D
331
369A
  5
369E
331
369B
  5
369F
331
369C
  5
36A0
331
369D
  5
36A1
331
369E
  5
36A2
331
369F
  5
36A3
331
36A0
  5
36A4
331
36A1
  5
36A5
331
36A2
  5
36A6
331
36A3
  5
36A7
331
36A4
  5
36A8
331
36A5
  5
36A9
331
36A6
  5
36AA
331
36A7
  5
36AB
331
36A8
  5
36AC
331
36A9
  5
36AD
331
36AA
  5
36AE
331
36AB
  5
36AF
331
36AC
  5
36B0
331
36AD
  5
36B1
331
36AE
  5
36B2
331
36AF
  5
36B3
331
36B0
  5
36B4
331
36B1
  5
36B5
331
36B2
  5
36B6
331
36B3
  5
36B7
331
36B4
  5
36B8
331
36B5
  5
36B9
331
36B6
  5
36BA
331
36B7
  5
36BB
331
36B8
  5
36BC
331
36B9
  5
36BD
331
36BA
  5
36BE
331
36BB
  5
36BF
331
36BC
  5
36C0
331
36BD
  5
36EB
331
36BE
  5
36EC
331
36BF
  5
36ED
331
36C0
  5
36EE
331
36EB
  5
33B2
331
36EC
  5
33B4
331
36ED
  5
33B0
331
36EE
  5
33AC
  0
DICTIONARY
  5
375C
102
{ACAD_REACTORS
330
375B
102
}
330
375B
100
AcDbDictionary
280
     1
281
     1
  0
ACDBASSOCNETWORK
  5
33DC
102
{ACAD_REACTORS
330
33DB
102
}
330
33DB
100
AcDbAssocAction
 90
        1
 90
        1
330
0
360
0
 90
        0
 90
        0
 90
        0
100
AcDbAssocNetwork
 90
        0
 90
        1
 90
        1
330
33DA
 90
        1
330
33DA
  0
ACDBDETAILVIEWSTYLE
  5
3244
102
{ACAD_REACTORS
330
3243
102
}
102
{ACAD_XDICTIONARY
360
3316
102
}
330
3243
100
AcDbModelDocViewStyle
 70
     0
  3
Metric50
290
     0
100
AcDbDetailViewStyle
 70
     0
 71
     0
 90
        3
 71
     1
340
11
 40
5.0
340
0
 40
5.0
300

 40
0.0
280
     1
 71
     2
340
16
 90
       25
 71
     3
340
11
 40
5.0
 90
        0
 40
15.0
 90
        1
300
%<\AcVar ViewDetailId>% (%<\AcVar ViewScale \f "%sn">%)
 71
     4
340
16
 90
       25
340
16
 90
       25
280
     0
  0
LAYOUT
  5
31BE
102
{ACAD_REACTORS
330
1A
102
}
330
1A
100
AcDbPlotSettings
  1

  2
none_device
  4
ISO_A2_(594.00_x_420.00_MM)
  6

 40
0.0
 41
0.0
 42
0.0
 43
0.0
 44
594.0
 45
420.0
 46
0.0
 47
0.0
 48
0.0
 49
0.0
140
0.0
141
0.0
142
1.0
143
1.0
 70
     0
 72
     1
 73
     0
 74
     0
  7

 75
     0
147
1.0
148
0.0
149
0.0
100
AcDbLayout
  1
Layout1
 70
     1
 71
     1
 10
0.0
 20
0.0
 11
594.0
 21
420.0
 12
0.0
 22
0.0
 32
0.0
 14
1.000000000000000E+20
 24
1.000000000000000E+20
 34
1.000000000000000E+20
 15
-1.000000000000000E+20
 25
-1.000000000000000E+20
 35
-1.000000000000000E+20
146
0.0
 13
0.0
 23
0.0
 33
0.0
 16
1.0
 26
0.0
 36
0.0
 17
0.0
 27
1.0
 37
0.0
 76
     0
330
255
331
3789
  0
LAYOUT
  5
31BD
102
{ACAD_REACTORS
330
1A
102
}
330
1A
100
AcDbPlotSettings
  1

  2
none_device
  4
ISO_A2_(594.00_x_420.00_MM)
  6

 40
0.0
 41
0.0
 42
0.0
 43
0.0
 44
594.0
 45
420.0
 46
0.0
 47
0.0
 48
0.0
 49
0.0
140
0.0
141
0.0
142
1.0
143
1.0
 70
  1024
 72
     1
 73
     0
 74
     0
  7

 75
     0
147
1.0
148
0.0
149
0.0
100
AcDbLayout
  1
Model
 70
     0
 71
     0
 10
-1138.936370754036
 20
-1218.554041607513
 11
387.8707113491732
 21
2570.485523402544
 12
0.0
 22
0.0
 32
0.0
 14
0.0
 24
0.0
 34
0.0
 15
155.4414192598998
 25
2454.596603282235
 35
0.0
146
0.0
 13
0.0
 23
0.0
 33
0.0
 16
1.0
 26
0.0
 36
0.0
 17
0.0
 27
1.0
 37
0.0
 76
     0
330
254
331
1F4
  0
MATERIAL
  5
378F
102
{ACAD_REACTORS
330
378D
102
}
330
378D
100
AcDbMaterial
  1
ByBlock
  0
MATERIAL
  5
378E
102
{ACAD_REACTORS
330
378D
102
}
330
378D
100
AcDbMaterial
  1
ByLayer
  0
MATERIAL
  5
3790
102
{ACAD_REACTORS
330
378D
102
}
330
378D
100
AcDbMaterial
  1
Global
  0
MLINESTYLE
  5
18
102
{ACAD_REACTORS
330
17
102
}
330
17
100
AcDbMlineStyle
  2
STANDARD
 70
     0
  3

 62
   256
 51
90.0
 52
90.0
 71
     2
 49
0.5
 62
   256
  6
BYLAYER
 49
-0.5
 62
   256
  6
BYLAYER
  0
ACDBPLACEHOLDER
  5
F
102
{ACAD_REACTORS
330
E
102
}
330
E
  0
SCALE
  5
31C1
102
{ACAD_REACTORS
330
31C0
102
}
330
31C0
100
AcDbScale
 70
     0
300
1:1
140
1.0
141
1.0
290
     1
  0
SCALE
  5
31C2
102
{ACAD_REACTORS
330
31C0
102
}
330
31C0
100
AcDbScale
 70
     0
300
1:2
140
1.0
141
2.0
290
     0
  0
SCALE
  5
31C3
102
{ACAD_REACTORS
330
31C0
102
}
330
31C0
100
AcDbScale
 70
     0
300
1:4
140
1.0
141
4.0
290
     0
  0
SCALE
  5
31C4
102
{ACAD_REACTORS
330
31C0
102
}
330
31C0
100
AcDbScale
 70
     0
300
1:5
140
1.0
141
5.0
290
     0
  0
SCALE
  5
31C5
102
{ACAD_REACTORS
330
31C0
102
}
330
31C0
100
AcDbScale
 70
     0
300
1:8
140
1.0
141
8.0
290
     0
  0
SCALE
  5
31C6
102
{ACAD_REACTORS
330
31C0
102
}
330
31C0
100
AcDbScale
 70
     0
300
1:10
140
1.0
141
10.0
290
     0
  0
SCALE
  5
31C7
102
{ACAD_REACTORS
330
31C0
102
}
330
31C0
100
AcDbScale
 70
     0
300
1:16
140
1.0
141
16.0
290
     0
  0
SCALE
  5
31C8
102
{ACAD_REACTORS
330
31C0
102
}
330
31C0
100
AcDbScale
 70
     0
300
1:20
140
1.0
141
20.0
290
     0
  0
SCALE
  5
31C9
102
{ACAD_REACTORS
330
31C0
102
}
330
31C0
100
AcDbScale
 70
     0
300
1:30
140
1.0
141
30.0
290
     0
  0
SCALE
  5
31CA
102
{ACAD_REACTORS
330
31C0
102
}
330
31C0
100
AcDbScale
 70
     0
300
1:40
140
1.0
141
40.0
290
     0
  0
SCALE
  5
31CB
102
{ACAD_REACTORS
330
31C0
102
}
330
31C0
100
AcDbScale
 70
     0
300
1:50
140
1.0
141
50.0
290
     0
  0
SCALE
  5
31CC
102
{ACAD_REACTORS
330
31C0
102
}
330
31C0
100
AcDbScale
 70
     0
300
1:100
140
1.0
141
100.0
290
     0
  0
SCALE
  5
31CD
102
{ACAD_REACTORS
330
31C0
102
}
330
31C0
100
AcDbScale
 70
     0
300
2:1
140
2.0
141
1.0
290
     0
  0
SCALE
  5
31CE
102
{ACAD_REACTORS
330
31C0
102
}
330
31C0
100
AcDbScale
 70
     0
300
4:1
140
4.0
141
1.0
290
     0
  0
SCALE
  5
31CF
102
{ACAD_REACTORS
330
31C0
102
}
330
31C0
100
AcDbScale
 70
     0
300
8:1
140
8.0
141
1.0
290
     0
  0
SCALE
  5
31D0
102
{ACAD_REACTORS
330
31C0
102
}
330
31C0
100
AcDbScale
 70
     0
300
10:1
140
10.0
141
1.0
290
     0
  0
SCALE
  5
31D1
102
{ACAD_REACTORS
330
31C0
102
}
330
31C0
100
AcDbScale
 70
     0
300
100:1
140
100.0
141
1.0
290
     0
  0
SCALE
  5
31D2
102
{ACAD_REACTORS
330
31C0
102
}
330
31C0
100
AcDbScale
 70
     0
300
1/128" = 1'-0"
140
0.0078125
141
12.0
290
     0
  0
SCALE
  5
31D3
102
{ACAD_REACTORS
330
31C0
102
}
330
31C0
100
AcDbScale
 70
     0
300
1/64" = 1'-0"
140
0.015625
141
12.0
290
     0
  0
SCALE
  5
31D4
102
{ACAD_REACTORS
330
31C0
102
}
330
31C0
100
AcDbScale
 70
     0
300
1/32" = 1'-0"
140
0.03125
141
12.0
290
     0
  0
SCALE
  5
31D5
102
{ACAD_REACTORS
330
31C0
102
}
330
31C0
100
AcDbScale
 70
     0
300
1/16" = 1'-0"
140
0.0625
141
12.0
290
     0
  0
SCALE
  5
31D6
102
{ACAD_REACTORS
330
31C0
102
}
330
31C0
100
AcDbScale
 70
     0
300
3/32" = 1'-0"
140
0.09375
141
12.0
290
     0
  0
SCALE
  5
31D7
102
{ACAD_REACTORS
330
31C0
102
}
330
31C0
100
AcDbScale
 70
     0
300
1/8" = 1'-0"
140
0.125
141
12.0
290
     0
  0
SCALE
  5
31D8
102
{ACAD_REACTORS
330
31C0
102
}
330
31C0
100
AcDbScale
 70
     0
300
3/16" = 1'-0"
140
0.1875
141
12.0
290
     0
  0
SCALE
  5
31D9
102
{ACAD_REACTORS
330
31C0
102
}
330
31C0
100
AcDbScale
 70
     0
300
1/4" = 1'-0"
140
0.25
141
12.0
290
     0
  0
SCALE
  5
31DA
102
{ACAD_REACTORS
330
31C0
102
}
330
31C0
100
AcDbScale
 70
     0
300
3/8" = 1'-0"
140
0.375
141
12.0
290
     0
  0
SCALE
  5
31DB
102
{ACAD_REACTORS
330
31C0
102
}
330
31C0
100
AcDbScale
 70
     0
300
1/2" = 1'-0"
140
0.5
141
12.0
290
     0
  0
SCALE
  5
31DC
102
{ACAD_REACTORS
330
31C0
102
}
330
31C0
100
AcDbScale
 70
     0
300
3/4" = 1'-0"
140
0.75
141
12.0
290
     0
  0
SCALE
  5
31DD
102
{ACAD_REACTORS
330
31C0
102
}
330
31C0
100
AcDbScale
 70
     0
300
1" = 1'-0"
140
1.0
141
12.0
290
     0
  0
SCALE
  5
31DE
102
{ACAD_REACTORS
330
31C0
102
}
330
31C0
100
AcDbScale
 70
     0
300
1-1/2" = 1'-0"
140
1.5
141
12.0
290
     0
  0
SCALE
  5
31DF
102
{ACAD_REACTORS
330
31C0
102
}
330
31C0
100
AcDbScale
 70
     0
300
3" = 1'-0"
140
3.0
141
12.0
290
     0
  0
SCALE
  5
31E0
102
{ACAD_REACTORS
330
31C0
102
}
330
31C0
100
AcDbScale
 70
     0
300
6" = 1'-0"
140
6.0
141
12.0
290
     0
  0
SCALE
  5
31E1
102
{ACAD_REACTORS
330
31C0
102
}
330
31C0
100
AcDbScale
 70
     0
300
1'-0" = 1'-0"
140
12.0
141
12.0
290
     0
  0
ACDBSECTIONVIEWSTYLE
  5
3242
102
{ACAD_REACTORS
330
3241
102
}
102
{ACAD_XDICTIONARY
360
3314
102
}
330
3241
100
AcDbModelDocViewStyle
 70
     0
  3
Metric50
290
     0
100
AcDbSectionViewStyle
 70
     0
 71
     0
 90
      102
 71
     1
340
11
 40
5.0
340
0
340
0
 40
5.0
300
I, O, Q, S, X, Z
 40
10.0
 90
        0
 40
2.5
 90
        0
 71
     2
340
16
 90
       25
340
16
 90
       50
 40
5.0
 40
2.5
 40
5.0
 71
     3
340
11
 40
5.0
 90
        0
 40
15.0
 90
        1
300
%<\AcVar ViewSectionStartId>%-%<\AcVar ViewSectionEndId>% (%<\AcVar ViewScale \f "%sn">%)
 71
     4
300
ANSI31
 40
1.0
 90
        0
290
     0
290
     0
 90
        6
 40
0.0
 40
1.570796326794896
 40
0.2617993877991494
 40
1.308996938995747
 40
-0.2617993877991494
 40
1.832595714594046
  0
DICTIONARYVAR
  5
3712
102
{ACAD_REACTORS
330
3319
102
}
330
3319
100
DictionaryVariables
280
     0
  1
1
  0
DICTIONARYVAR
  5
3711
102
{ACAD_REACTORS
330
3319
102
}
330
3319
100
DictionaryVariables
280
     0
  1
0
  0
DICTIONARYVAR
  5
3710
102
{ACAD_REACTORS
330
3319
102
}
330
3319
100
DictionaryVariables
280
     0
  1
127
  0
DICTIONARY
  5
371F
102
{ACAD_REACTORS
330
371D
102
}
330
371D
100
AcDbDictionary
281
     1
  0
DICTIONARY
  5
371E
102
{ACAD_REACTORS
330
371D
102
}
330
371D
100
AcDbDictionary
281
     1
  3
140698215101440
350
3718
  3
140698215101456
350
3719
  3
140698215101472
350
371A
  3
140698215101488
350
371B
  3
140698215101504
350
371C
  0
ACDBASSOCNETWORK
  5
33DA
102
{ACAD_REACTORS
330
33D9
102
}
330
33D9
100
AcDbAssocAction
 90
        1
 90
        1
330
33DC
360
0
 90
        1
 90
        0
 90
        0
100
AcDbAssocNetwork
 90
        0
 90
        1
 90
        1
360
33DD
 90
        1
330
33DD
  0
DICTIONARY
  5
3316
330
3244
100
AcDbDictionary
280
     1
281
     1
  3
ACAD_XREC_ROUNDTRIP
360
375A
  0
DICTIONARY
  5
3314
330
3242
100
AcDbDictionary
280
     1
281
     1
  3
ACAD_XREC_ROUNDTRIP
360
3759
  0
XRECORD
  5
3718
102
{ACAD_REACTORS
330
371E
102
}
330
371E
100
AcDbXrecord
280
     1
  1
AcDb_Thumbnail_Schema
102
{ATTRRECORD
341
3719
  2
AcDbDs::TreatedAsObjectData
280
     1
291
     1
102
ATTRRECORD}
102
{ATTRRECORD
341
371A
  2
AcDbDs::Legacy
280
     1
291
     1
102
ATTRRECORD}
  2
AcDbDs::ID
280
    10
 91
        8
102
{ATTRRECORD
341
371B
  2
AcDs:Indexable
280
     1
291
     1
102
ATTRRECORD}
102
{ATTRRECORD
341
371C
  2
AcDbDs::HandleAttribute
280
     7
282
     1
102
ATTRRECORD}
  2
Thumbnail_Data
280
    15
 91
        0
  0
XRECORD
  5
3719
102
{ACAD_REACTORS
330
371E
102
}
330
371E
100
AcDbXrecord
280
     1
  1
AcDbDs::TreatedAsObjectDataSchema
  2
AcDbDs::TreatedAsObjectData
280
     1
 91
        0
  0
XRECORD
  5
371A
102
{ACAD_REACTORS
330
371E
102
}
330
371E
100
AcDbXrecord
280
     1
  1
AcDbDs::LegacySchema
  2
AcDbDs::Legacy
280
     1
 91
        0
  0
XRECORD
  5
371B
102
{ACAD_REACTORS
330
371E
102
}
330
371E
100
AcDbXrecord
280
     1
  1
AcDbDs::IndexedPropertySchema
  2
AcDs:Indexable
280
     1
 91
        0
  0
XRECORD
  5
371C
102
{ACAD_REACTORS
330
371E
102
}
330
371E
100
AcDbXrecord
280
     1
  1
AcDbDs::HandleAttributeSchema
  2
AcDbDs::HandleAttribute
280
     7
 91
        1
284
     1
  0
ACDBASSOCACTION
  5
33DD
330
33DA
100
AcDbAssocAction
 90
        1
 90
        1
330
33DA
360
33DE
 90
        1
 90
        3
 90
        3
360
33E1
360
33E2
360
33E3
  0
XRECORD
  5
375A
102
{ACAD_REACTORS
330
3316
102
}
330
3316
100
AcDbXrecord
280
     1
102
DISPLAYNAME
  1
Metric50
102
FLAGS
 90
        0
  0
XRECORD
  5
3759
102
{ACAD_REACTORS
330
3314
102
}
330
3314
100
AcDbXrecord
280
     1
102
DISPLAYNAME
  1
Metric50
102
FLAGS
 90
        0
  0
ACDBASSOCARRAYACTIONBODY
  5
33DE
330
33DD
100
AcDbAssocActionBody
 90
        1
100
AcDbAssocParamBasedActionBody
 90
        0
 90
        0
 90
        3
360
33DF
360
33E0
360
33E4
 90
        0
 90
       10
 90
        0
  1
FillAngle
 90
        2
 90
        1
 40
6.283185307179586
330
0
330
0
 90
        0
  1
ItemSpacing
 90
        2
 90
        1
 40
0.5235987755982988
330
0
330
0
 90
        0
  1
Items
 90
        0
 90
        1
 90
       12
330
0
330
0
 90
        0
  1
LevelSpacing
 90
        1
 90
        1
 40
1.0
330
0
330
0
 90
        0
  1
Levels
 90
        0
 90
        1
 90
        1
330
0
330
0
 90
        0
  1
RowElevation
 90
        1
 90
        1
 40
0.0
330
0
330
0
 90
        0
  1
RowSpacing
 90
        1
 90
        1
 40
12.00000003000002
330
0
330
0
 90
        0
  1
Rows
 90
        0
 90
        1
 90
        1
330
0
330
0
 90
        0
  1
Radius
 90
        1
 90
        1
 40
345.0000000000001
330
0
330
0
 90
        0
  1
StartAngle
 90
        2
 90
        1
 40
0.2617993877991497
330
0
330
0
100
AcDbAssocArrayActionBody
 90
        1
  1
AcDbAssocArrayPolarParameters
 90
        0
 90
       12
  1
AcDbAssocArrayItem
100
AcDbAssocArrayItem
 90
        0
 90
        0
 90
        0
 90
        0
 90
        8
 11
-81.31417067037171
 21
1973.889173842604
 31
0.0
330
33E6
100
AcDbAssocArrayItem
 90
        0
 90
        1
 90
        0
 90
        0
 90
       12
 40
0.8660254037844387
 40
-0.5
 40
0.0
 40
-170.6067412307414
 40
0.5
 40
0.8660254037844389
 40
0.0
 40
2128.548442791594
 40
0.0
 40
0.0
 40
1.0
 40
0.0
 40
0.0
 40
0.0
 40
0.0
 40
1.0
330
33E7
100
AcDbAssocArrayItem
 90
        0
 90
        2
 90
        0
 90
        0
 90
       12
 40
0.5
 40
-0.8660254037844389
 40
0.0
 40
-325.2660101797307
 40
0.8660254037844389
 40
0.5000000000000002
 40
0.0
 40
2217.841013351963
 40
0.0
 40
0.0
 40
1.0
 40
0.0
 40
0.0
 40
0.0
 40
0.0
 40
1.0
330
33E8
100
AcDbAssocArrayItem
 90
        0
 90
        3
 90
        0
 90
        0
 90
       12
 40
0.0000000000000003
 40
-1.0
 40
0.0
 40
-503.8511513004699
 40
1.0
 40
0.0000000000000003
 40
0.0
 40
2217.841013351963
 40
0.0
 40
0.0
 40
1.0
 40
0.0
 40
0.0
 40
0.0
 40
0.0
 40
1.0
330
33E9
100
AcDbAssocArrayItem
 90
        0
 90
        4
 90
        0
 90
        0
 90
       12
 40
-0.5
 40
-0.866025403784439
 40
0.0
 40
-658.5104202494592
 40
0.8660254037844389
 40
-0.4999999999999997
 40
0.0
 40
2128.548442791594
 40
0.0
 40
0.0
 40
1.0
 40
0.0
 40
0.0
 40
0.0
 40
0.0
 40
1.0
330
33EA
100
AcDbAssocArrayItem
 90
        0
 90
        5
 90
        0
 90
        0
 90
       12
 40
-0.8660254037844387
 40
-0.5000000000000007
 40
0.0
 40
-747.8029908098289
 40
0.5000000000000002
 40
-0.8660254037844385
 40
0.0
 40
1973.889173842604
 40
0.0
 40
0.0
 40
1.0
 40
0.0
 40
0.0
 40
0.0
 40
0.0
 40
1.0
330
33EB
100
AcDbAssocArrayItem
 90
        0
 90
        6
 90
        0
 90
        0
 90
       12
 40
-1.0
 40
-0.0000000000000008
 40
0.0
 40
-747.802990809829
 40
0.0000000000000006
 40
-1.0
 40
0.0
 40
1795.304032721865
 40
0.0
 40
0.0
 40
1.0
 40
0.0
 40
0.0
 40
0.0
 40
0.0
 40
1.0
330
33EC
100
AcDbAssocArrayItem
 90
        0
 90
        7
 90
        0
 90
        0
 90
       12
 40
-0.866025403784439
 40
0.4999999999999997
 40
0.0
 40
-658.5104202494592
 40
-0.4999999999999997
 40
-0.866025403784439
 40
0.0
 40
1640.644763772876
 40
0.0
 40
0.0
 40
1.0
 40
0.0
 40
0.0
 40
0.0
 40
0.0
 40
1.0
330
33ED
100
AcDbAssocArrayItem
 90
        0
 90
        8
 90
        0
 90
        0
 90
       12
 40
-0.5000000000000007
 40
0.8660254037844387
 40
0.0
 40
-503.8511513004699
 40
-0.8660254037844385
 40
-0.5000000000000002
 40
0.0
 40
1551.352193212506
 40
0.0
 40
0.0
 40
1.0
 40
0.0
 40
0.0
 40
0.0
 40
0.0
 40
1.0
330
33EE
100
AcDbAssocArrayItem
 90
        0
 90
        9
 90
        0
 90
        0
 90
       12
 40
-0.0000000000000016
 40
1.0
 40
0.0
 40
-325.2660101797308
 40
-1.0
 40
-0.000000000000001
 40
0.0
 40
1551.352193212506
 40
0.0
 40
0.0
 40
1.0
 40
0.0
 40
0.0
 40
0.0
 40
0.0
 40
1.0
330
33EF
100
AcDbAssocArrayItem
 90
        0
 90
       10
 90
        0
 90
        0
 90
       12
 40
0.4999999999999991
 40
0.8660254037844389
 40
0.0
 40
-170.6067412307414
 40
-0.8660254037844396
 40
0.4999999999999994
 40
0.0
 40
1640.644763772876
 40
0.0
 40
0.0
 40
1.0
 40
0.0
 40
0.0
 40
0.0
 40
0.0
 40
1.0
330
33F0
100
AcDbAssocArrayItem
 90
        0
 90
       11
 90
        0
 90
        0
 90
       12
 40
0.8660254037844385
 40
0.5000000000000004
 40
0.0
 40
-81.31417067037165
 40
-0.5000000000000014
 40
0.8660254037844385
 40
0.0
 40
1795.304032721865
 40
0.0
 40
0.0
 40
1.0
 40
0.0
 40
0.0
 40
0.0
 40
0.0
 40
1.0
330
33F1
 40
1.0
 40
0.0
 40
0.0
 40
0.0
 40
0.0
 40
1.0
 40
0.0
 40
0.0
 40
0.0
 40
0.0
 40
1.0
 40
0.0
 40
0.0
 40
0.0
 40
0.0
 40
1.0
  0
ACDBASSOCDEPENDENCY
  5
33E1
330
33DD
100
AcDbAssocDependency
 90
        2
 90
        1
290
     0
290
     1
290
     1
290
     1
 90
        0
330
33D3
290
     0
330
0
330
0
360
0
 90
        1
  0
ACDBASSOCDEPENDENCY
  5
33E2
330
33DD
100
AcDbAssocDependency
 90
        2
 90
        1
290
     1
290
     0
290
     1
290
     1
 90
        0
330
33D0
290
     0
330
0
330
0
360
0
 90
        2
  0
ACDBASSOCDEPENDENCY
  5
33E3
330
33DD
100
AcDbAssocDependency
 90
        2
 90
        0
290
     1
290
     1
290
     1
290
     1
 90
-2147483648
330
33D6
290
     0
330
0
330
0
360
0
 90
        3
  0
ACDBASSOCVERTEXACTIONPARAM
  5
33DF
330
33DE
100
AcDbAssocActionParam
 90
        0
  1
BaseNormal
100
AcDbAssocSingleDependencyActionParam
 90
        0
330
0
100
AcDbAssocVertexActionParam
 90
        0
 10
0.0
 20
0.0
 30
1.0
  0
ACDBASSOCVERTEXACTIONPARAM
  5
33E0
330
33DE
100
AcDbAssocActionParam
 90
        0
  1
Origin
100
AcDbAssocSingleDependencyActionParam
 90
        0
330
0
100
AcDbAssocVertexActionParam
 90
        0
 10
-414.5585807401003
 20
1884.596603282235
 30
0.0
  0
ACDBASSOCVERTEXACTIONPARAM
  5
33E4
330
33DE
100
AcDbAssocActionParam
 90
        0
  1
basePoint
100
AcDbAssocSingleDependencyActionParam
 90
        0
330
0
100
AcDbAssocVertexActionParam
 90
        0
 10
0.0
 20
0.0
 30
0.0
  0
ENDSEC
  0
EOF
