  0
SECTION
  2
HEADER
  9
$ACADVER
  1
AC1015
  9
$ACADMAINTVER
 70
     6
  9
$DWGCODEPAGE
  3
ANSI_1250
  9
$INSBASE
 10
0.0
 20
0.0
 30
0.0
  9
$EXTMIN
 10
591.457029915097
 20
-761.7620535032909
 30
0.0
  9
$EXTMAX
 10
1981.457029915097
 20
3426.563316108369
 30
0.0
  9
$LIMMIN
 10
461.7916842758086
 20
-902.0479217116902
  9
$LIMMAX
 10
2117.968021912454
 20
3567.938214052524
  9
$ORTHOMODE
 70
     1
  9
$REGENMODE
 70
     1
  9
$FILLMODE
 70
     1
  9
$QTEXTMODE
 70
     0
  9
$MIRRTEXT
 70
     1
  9
$LTSCALE
 40
32.67
  9
$ATTMODE
 70
     1
  9
$TEXTSIZE
 40
0.2
  9
$TRACEWID
 40
0.05
  9
$TEXTSTYLE
  7
STANDARD
  9
$CLAYER
  8
0
  9
$CELTYPE
  6
BYLAYER
  9
$CECOLOR
 62
   256
  9
$CELTSCALE
 40
1.0
  9
$DISPSILH
 70
     0
  9
$DIMSCALE
 40
1.0
  9
$DIMASZ
 40
3.5
  9
$DIMEXO
 40
0.0
  9
$DIMDLI
 40
22.572
  9
$DIMRND
 40
0.0
  9
$DIMDLE
 40
0.0
  9
$DIMEXE
 40
1.0
  9
$DIMTP
 40
0.04
  9
$DIMTM
 40
0.04
  9
$DIMTXT
 40
2.5
  9
$DIMCEN
 40
5.346
  9
$DIMTSZ
 40
0.0
  9
$DIMTOL
 70
     1
  9
$DIMLIM
 70
     0
  9
$DIMTIH
 70
     1
  9
$DIMTOH
 70
     1
  9
$DIMSE1
 70
     0
  9
$DIMSE2
 70
     0
  9
$DIMTAD
 70
     0
  9
$DIMZIN
 70
     0
  9
$DIMBLK
  1

  9
$DIMASO
 70
     1
  9
$DIMSHO
 70
     1
  9
$DIMPOST
  1

  9
$DIMAPOST
  1

  9
$DIMALT
 70
     0
  9
$DIMALTD
 70
     2
  9
$DIMALTF
 40
25.4
  9
$DIMLFAC
 40
1.0
  9
$DIMTOFL
 70
     0
  9
$DIMTVP
 40
0.0
  9
$DIMTIX
 70
     0
  9
$DIMSOXD
 70
     0
  9
$DIMSAH
 70
     0
  9
$DIMBLK1
  1

  9
$DIMBLK2
  1

  9
$DIMSTYLE
  2
STANDARD
  9
$DIMCLRD
 70
     0
  9
$DIMCLRE
 70
     0
  9
$DIMCLRT
 70
     0
  9
$DIMTFAC
 40
1.0
  9
$DIMGAP
 40
0.625
  9
$DIMJUST
 70
     0
  9
$DIMSD1
 70
     0
  9
$DIMSD2
 70
     0
  9
$DIMTOLJ
 70
     1
  9
$DIMTZIN
 70
     0
  9
$DIMALTZ
 70
     0
  9
$DIMALTTZ
 70
     0
  9
$DIMUPT
 70
     0
  9
$DIMDEC
 70
     4
  9
$DIMTDEC
 70
     4
  9
$DIMALTU
 70
     2
  9
$DIMALTTD
 70
     2
  9
$DIMTXSTY
  7
STANDARD
  9
$DIMAUNIT
 70
     0
  9
$DIMADEC
 70
     0
  9
$DIMALTRND
 40
0.0
  9
$DIMAZIN
 70
     0
  9
$DIMDSEP
 70
    44
  9
$DIMATFIT
 70
     3
  9
$DIMFRAC
 70
     0
  9
$DIMLDRBLK
  1

  9
$DIMLUNIT
 70
     2
  9
$DIMLWD
 70
    -2
  9
$DIMLWE
 70
    -2
  9
$DIMTMOVE
 70
     0
  9
$LUNITS
 70
     2
  9
$LUPREC
 70
     4
  9
$SKETCHINC
 40
0.1
  9
$FILLETRAD
 40
0.5
  9
$AUNITS
 70
     0
  9
$AUPREC
 70
     0
  9
$MENU
  1
.
  9
$ELEVATION
 40
0.0
  9
$PELEVATION
 40
0.0
  9
$THICKNESS
 40
0.0
  9
$LIMCHECK
 70
     0
  9
$CHAMFERA
 40
0.0
  9
$CHAMFERB
 40
0.0
  9
$CHAMFERC
 40
0.0
  9
$CHAMFERD
 40
0.0
  9
$SKPOLY
 70
     0
  9
$TDCREATE
 40
2457071.920398113
  9
$TDUCREATE
 40
2457071.878731447
  9
$TDUPDATE
 40
2457072.665669896
  9
$TDUUPDATE
 40
2457072.624003229
  9
$TDINDWG
 40
0.0972823727
  9
$TDUSRTIMER
 40
2457072.622063762
  9
$USRTIMER
 70
     1
  9
$ANGBASE
 50
0.0
  9
$ANGDIR
 70
     0
  9
$PDMODE
 70
     3
  9
$PDSIZE
 40
6.0
  9
$PLINEWID
 40
0.0
  9
$SPLFRAME
 70
     0
  9
$SPLINETYPE
 70
     6
  9
$SPLINESEGS
 70
     8
  9
$HANDSEED
  5
6AC4
  9
$SURFTAB1
 70
     6
  9
$SURFTAB2
 70
     6
  9
$SURFTYPE
 70
     6
  9
$SURFU
 70
     6
  9
$SURFV
 70
     6
  9
$UCSBASE
  2

  9
$UCSNAME
  2

  9
$UCSORG
 10
0.0
 20
0.0
 30
0.0
  9
$UCSXDIR
 10
1.0
 20
0.0
 30
0.0
  9
$UCSYDIR
 10
0.0
 20
1.0
 30
0.0
  9
$UCSORTHOREF
  2

  9
$UCSORTHOVIEW
 70
     0
  9
$UCSORGTOP
 10
0.0
 20
0.0
 30
0.0
  9
$UCSORGBOTTOM
 10
0.0
 20
0.0
 30
0.0
  9
$UCSORGLEFT
 10
0.0
 20
0.0
 30
0.0
  9
$UCSORGRIGHT
 10
0.0
 20
0.0
 30
0.0
  9
$UCSORGFRONT
 10
0.0
 20
0.0
 30
0.0
  9
$UCSORGBACK
 10
0.0
 20
0.0
 30
0.0
  9
$PUCSBASE
  2

  9
$PUCSNAME
  2

  9
$PUCSORG
 10
0.0
 20
0.0
 30
0.0
  9
$PUCSXDIR
 10
1.0
 20
0.0
 30
0.0
  9
$PUCSYDIR
 10
0.0
 20
1.0
 30
0.0
  9
$PUCSORTHOREF
  2

  9
$PUCSORTHOVIEW
 70
     0
  9
$PUCSORGTOP
 10
0.0
 20
0.0
 30
0.0
  9
$PUCSORGBOTTOM
 10
0.0
 20
0.0
 30
0.0
  9
$PUCSORGLEFT
 10
0.0
 20
0.0
 30
0.0
  9
$PUCSORGRIGHT
 10
0.0
 20
0.0
 30
0.0
  9
$PUCSORGFRONT
 10
0.0
 20
0.0
 30
0.0
  9
$PUCSORGBACK
 10
0.0
 20
0.0
 30
0.0
  9
$USERI1
 70
     0
  9
$USERI2
 70
     0
  9
$USERI3
 70
     0
  9
$USERI4
 70
     0
  9
$USERI5
 70
     0
  9
$USERR1
 40
0.0
  9
$USERR2
 40
0.0
  9
$USERR3
 40
0.0
  9
$USERR4
 40
0.0
  9
$USERR5
 40
0.0
  9
$WORLDVIEW
 70
     1
  9
$SHADEDGE
 70
     3
  9
$SHADEDIF
 70
    70
  9
$TILEMODE
 70
     1
  9
$MAXACTVP
 70
    64
  9
$PINSBASE
 10
0.0
 20
0.0
 30
0.0
  9
$PLIMCHECK
 70
     0
  9
$PEXTMIN
 10
1.000000000000000E+20
 20
1.000000000000000E+20
 30
1.000000000000000E+20
  9
$PEXTMAX
 10
-1.000000000000000E+20
 20
-1.000000000000000E+20
 30
-1.000000000000000E+20
  9
$PLIMMIN
 10
0.0
 20
0.0
  9
$PLIMMAX
 10
594.0
 20
420.0
  9
$UNITMODE
 70
     0
  9
$VISRETAIN
 70
     1
  9
$PLINEGEN
 70
     0
  9
$PSLTSCALE
 70
     1
  9
$TREEDEPTH
 70
  3020
  9
$CMLSTYLE
  2
Standard
  9
$CMLJUST
 70
     0
  9
$CMLSCALE
 40
1.0
  9
$PROXYGRAPHICS
 70
     1
  9
$MEASUREMENT
 70
     1
  9
$CELWEIGHT
370
    -1
  9
$ENDCAPS
280
     0
  9
$JOINSTYLE
280
     0
  9
$LWDISPLAY
290
     0
  9
$INSUNITS
 70
     4
  9
$HYPERLINKBASE
  1

  9
$STYLESHEET
  1

  9
$XEDIT
290
     1
  9
$CEPSNTYPE
380
     0
  9
$PSTYLEMODE
290
     1
  9
$FINGERPRINTGUID
  2
{E9C6B30A-59FB-4AA2-A627-2152B9EE8EE6}
  9
$VERSIONGUID
  2
{FBDB2938-A78D-447A-82B8-7C9F9628BA08}
  9
$EXTNAMES
290
     1
  9
$PSVPSCALE
 40
0.0
  9
$OLESTARTUP
290
     0
  0
ENDSEC
  0
SECTION
  2
CLASSES
  0
CLASS
  1
ACDBDICTIONARYWDFLT
  2
AcDbDictionaryWithDefault
  3
ObjectDBX Classes
 90
        0
280
     0
281
     0
  0
CLASS
  1
ACDBPLACEHOLDER
  2
AcDbPlaceHolder
  3
ObjectDBX Classes
 90
        0
280
     0
281
     0
  0
CLASS
  1
LAYOUT
  2
AcDbLayout
  3
ObjectDBX Classes
 90
        0
280
     0
281
     0
  0
CLASS
  1
RASTERVARIABLES
  2
AcDbRasterVariables
  3
ISM
 90
        0
280
     0
281
     0
  0
CLASS
  1
IMAGEDEF
  2
AcDbRasterImageDef
  3
ISM
 90
        0
280
     0
281
     0
  0
CLASS
  1
IMAGEDEF_REACTOR
  2
AcDbRasterImageDefReactor
  3
ISM
 90
        1
280
     0
281
     0
  0
CLASS
  1
IMAGE
  2
AcDbRasterImage
  3
ISM
 90
      127
280
     0
281
     1
  0
CLASS
  1
SCALE
  2
AcDbScale
  3
ObjectDBX Classes
 90
     1153
280
     0
281
     0
  0
CLASS
  1
VISUALSTYLE
  2
AcDbVisualStyle
  3
ObjectDBX Classes
 90
     4095
280
     0
281
     0
  0
CLASS
  1
MATERIAL
  2
AcDbMaterial
  3
ObjectDBX Classes
 90
     1153
280
     0
281
     0
  0
CLASS
  1
TABLESTYLE
  2
AcDbTableStyle
  3
ObjectDBX Classes
 90
     4095
280
     0
281
     0
  0
CLASS
  1
SUN
  2
AcDbSun
  3
SCENEOE
 90
     1153
280
     0
281
     0
  0
CLASS
  1
MLEADERSTYLE
  2
AcDbMLeaderStyle
  3
ACDB_MLEADERSTYLE_CLASS
 90
     4095
280
     0
281
     0
  0
CLASS
  1
ACDBSECTIONVIEWSTYLE
  2
AcDbSectionViewStyle
  3
ObjectDBX Classes
 90
     1025
280
     1
281
     0
  0
CLASS
  1
ACDBDETAILVIEWSTYLE
  2
AcDbDetailViewStyle
  3
ObjectDBX Classes
 90
     1025
280
     1
281
     0
  0
CLASS
  1
DICTIONARYVAR
  2
AcDbDictionaryVar
  3
ObjectDBX Classes
 90
        0
280
     0
281
     0
  0
CLASS
  1
SORTENTSTABLE
  2
AcDbSortentsTable
  3
ObjectDBX Classes
 90
        0
280
     0
281
     0
  0
CLASS
  1
ACARRAYJIGENTITY
  2
AcArrayJigEntity
  3
ACAD_ARRAY
 90
      129
280
     1
281
     1
  0
CLASS
  1
ACDBASSOCNETWORK
  2
AcDbAssocNetwork
  3
ObjectDBX Classes
 90
     1025
280
     1
281
     0
  0
CLASS
  1
ACDBASSOCACTION
  2
AcDbAssocAction
  3
ObjectDBX Classes
 90
     1025
280
     1
281
     0
  0
CLASS
  1
ACDBASSOCARRAYACTIONBODY
  2
AcDbAssocArrayActionBody
  3
ObjectDBX Classes
 90
     1025
280
     1
281
     0
  0
CLASS
  1
ACDBASSOCVERTEXACTIONPARAM
  2
AcDbAssocVertexActionParam
  3
ObjectDBX Classes
 90
     1025
280
     1
281
     0
  0
CLASS
  1
ACDBASSOCDEPENDENCY
  2
AcDbAssocDependency
  3
ObjectDBX Classes
 90
     1025
280
     1
281
     0
  0
CLASS
  1
ACDBASSOCARRAYPOLARPARAMETERS
  2
AcDbAssocArrayPolarParameters
  3
ObjectDBX Classes
 90
     1025
280
     1
281
     0
  0
CLASS
  1
CELLSTYLEMAP
  2
AcDbCellStyleMap
  3
ObjectDBX Classes
 90
     1152
280
     0
281
     0
  0
ENDSEC
  0
SECTION
  2
TABLES
  0
TABLE
  2
VPORT
  5
8
330
0
100
AcDbSymbolTable
 70
     1
  0
VPORT
  5
1F4
330
8
100
AcDbSymbolTableRecord
100
AcDbViewportTableRecord
  2
*ACTIVE
 70
     0
 10
0.0
 20
0.0
 11
1.0
 21
1.0
 12
3803.718937006897
 22
1282.245870528479
 13
0.0
 23
0.0
 14
1.0
 24
1.0
 15
0.0
 25
0.0
 16
0.0
 26
0.0
 36
1.0
 17
0.0
 27
0.0
 37
0.0
 40
5027.678167825533
 41
2.038655462184874
 42
50.0
 43
0.0
 44
0.0
 50
0.0
 51
0.0
 71
    16
 72
   100
 73
     1
 74
     1
 75
     0
 76
     0
 77
     0
 78
     0
281
     0
 65
     1
110
0.0
120
0.0
130
0.0
111
1.0
121
0.0
131
0.0
112
0.0
122
1.0
132
0.0
 79
     0
146
0.0
1001
ACAD_NAV_VCDISPLAY
1070
     3
  0
ENDTAB
  0
TABLE
  2
LTYPE
  5
5
330
0
100
AcDbSymbolTable
 70
     6
  0
LTYPE
  5
14
330
5
100
AcDbSymbolTableRecord
100
AcDbLinetypeTableRecord
  2
BYBLOCK
 70
     0
  3

 72
    65
 73
     0
 40
0.0
  0
LTYPE
  5
15
330
5
100
AcDbSymbolTableRecord
100
AcDbLinetypeTableRecord
  2
BYLAYER
 70
     0
  3

 72
    65
 73
     0
 40
0.0
  0
LTYPE
  5
16
330
5
100
AcDbSymbolTableRecord
100
AcDbLinetypeTableRecord
  2
CONTINUOUS
 70
     0
  3
Solid line
 72
    65
 73
     0
 40
0.0
  0
LTYPE
  5
1F5
330
5
100
AcDbSymbolTableRecord
100
AcDbLinetypeTableRecord
  2
CENTER
 70
     0
  3
____ _ ____ _ ____ _ ____ _ ____ _ ____ _ ____
 72
    65
 73
     4
 40
0.6
 49
0.375
 74
     0
 49
-0.075
 74
     0
 49
0.075
 74
     0
 49
-0.075
 74
     0
  0
ENDTAB
  0
TABLE
  2
LAYER
  5
2
102
{ACAD_XDICTIONARY
360
336B
102
}
330
0
100
AcDbSymbolTable
 70
    87
  0
LAYER
  5
10
102
{ACAD_XDICTIONARY
360
3269
102
}
330
2
100
AcDbSymbolTableRecord
100
AcDbLayerTableRecord
  2
0
 70
     0
 62
     7
  6
CONTINUOUS
370
    -3
390
F
  0
LAYER
  5
203
102
{ACAD_XDICTIONARY
360
327D
102
}
330
2
100
AcDbSymbolTableRecord
100
AcDbLayerTableRecord
  2
02__ASM_ALL_AXES
 70
     0
 62
     7
  6
CONTINUOUS
370
    -3
390
F
  0
LAYER
  5
21F
102
{ACAD_XDICTIONARY
360
32B5
102
}
330
2
100
AcDbSymbolTableRecord
100
AcDbLayerTableRecord
  2
ALL_ASSEM_MEMBER
 70
     0
 62
     7
  6
CONTINUOUS
370
    -3
390
F
  0
ENDTAB
  0
TABLE
  2
STYLE
  5
3
330
0
100
AcDbSymbolTable
 70
     6
  0
STYLE
  5
11
330
3
100
AcDbSymbolTableRecord
100
AcDbTextStyleTableRecord
  2
STANDARD
 70
     0
 40
0.0
 41
0.6
 50
0.0
 71
     0
 42
0.2
  3
txt
  4

  0
ENDTAB
  0
TABLE
  2
VIEW
  5
6
330
0
100
AcDbSymbolTable
 70
     0
  0
ENDTAB
  0
TABLE
  2
UCS
  5
7
330
0
100
AcDbSymbolTable
 70
     0
  0
ENDTAB
  0
TABLE
  2
APPID
  5
9
330
0
100
AcDbSymbolTable
 70
     4
  0
APPID
  5
253
330
9
100
AcDbSymbolTableRecord
100
AcDbRegAppTableRecord
  2
ACAD
 70
     0
  0
APPID
  5
3247
330
9
100
AcDbSymbolTableRecord
100
AcDbRegAppTableRecord
  2
ACAD_EXEMPT_FROM_CAD_STANDARDS
 70
     0
  0
APPID
  5
3313
330
9
100
AcDbSymbolTableRecord
100
AcDbRegAppTableRecord
  2
ACAD_NAV_VCDISPLAY
 70
     0
  0
APPID
  5
6A36
330
9
100
AcDbSymbolTableRecord
100
AcDbRegAppTableRecord
  2
ACAD_MLEADERVER
 70
     0
  0
ENDTAB
  0
TABLE
  2
DIMSTYLE
  5
A
330
0
100
AcDbSymbolTable
 70
    10
100
AcDbDimStyleTable
  0
DIMSTYLE
105
29E
330
A
100
AcDbSymbolTableRecord
100
AcDbDimStyleTableRecord
  2
STANDARD
 70
     0
 41
3.5
 42
0.0
 44
1.0
 47
0.04
 48
0.04
 71
     1
 73
     0
 74
     0
 77
     1
 78
     8
140
2.5
147
0.625
178
     0
271
     1
272
     1
278
    44
284
     8
340
11
341
256
342
256
343
256
344
256
  0
ENDTAB
  0
TABLE
  2
BLOCK_RECORD
  5
1
330
0
100
AcDbSymbolTable
 70
   104
  0
BLOCK_RECORD
  5
254
102
{ACAD_XDICTIONARY
360
3382
102
}
330
1
100
AcDbSymbolTableRecord
100
AcDbBlockTableRecord
  2
*Model_Space
340
31BD
  0
BLOCK_RECORD
  5
255
330
1
100
AcDbSymbolTableRecord
100
AcDbBlockTableRecord
  2
*Paper_Space
340
31BE
  0
BLOCK_RECORD
  5
256
330
1
100
AcDbSymbolTableRecord
100
AcDbBlockTableRecord
  2
_FILLED
340
0
102
{BLKREFS
331
67C6
331
67CC
331
67CD
331
67D5
331
67D6
331
67DE
331
67DF
102
}
  0
BLOCK_RECORD
  5
69BB
102
{ACAD_REACTORS
330
69C9
102
}
330
1
100
AcDbSymbolTableRecord
100
AcDbBlockTableRecord
  2
*U99
340
0
102
{BLKREFS
331
69CD
331
69CE
331
69CF
331
69D0
331
69D1
331
69D2
331
69D3
331
69D4
331
69D5
331
69D6
331
69D7
331
69D8
331
69D9
331
69DA
331
69DB
331
69DC
102
}
  0
BLOCK_RECORD
  5
69BE
102
{ACAD_REACTORS
330
69C8
102
}
102
{ACAD_XDICTIONARY
360
6A3E
102
}
330
1
100
AcDbSymbolTableRecord
100
AcDbBlockTableRecord
  2
*U100
340
0
102
{BLKREFS
331
69C1
102
}
  0
ENDTAB
  0
ENDSEC
  0
SECTION
  2
BLOCKS
  0
BLOCK
  5
20
330
254
100
AcDbEntity
  8
0
100
AcDbBlockBegin
  2
*Model_Space
 70
     0
 10
0.0
 20
0.0
 30
0.0
  3
*Model_Space
  1
*Model_Space
  0
ENDBLK
  5
21
330
254
100
AcDbEntity
  8
0
100
AcDbBlockEnd
  0
BLOCK
  5
1C
330
255
100
AcDbEntity
 67
     1
  8
0
100
AcDbBlockBegin
  2
*Paper_Space
 70
     0
 10
0.0
 20
0.0
 30
0.0
  3
*Paper_Space
  1
*Paper_Space
  0
ENDBLK
  5
1D
330
255
100
AcDbEntity
 67
     1
  8
0
100
AcDbBlockEnd
  0
BLOCK
  5
3FE
330
256
100
AcDbEntity
  8
0
100
AcDbBlockBegin
  2
_FILLED
 70
     0
 10
0.0
 20
0.0
 30
0.0
  3
_FILLED
  1
_FILLED
  0
SOLID
  5
3FF
330
256
100
AcDbEntity
  8
0
  6
ByBlock
 62
     0
100
AcDbTrace
 10
0.0
 20
0.0
 30
0.0
 11
-1.0
 21
0.2142857143
 31
0.0
 12
-1.0
 22
-0.2142857143
 32
0.0
 13
-1.0
 23
-0.2142857143
 33
0.0
  0
ENDBLK
  5
400
330
256
100
AcDbEntity
  8
0
  6
ByBlock
 62
     0
100
AcDbBlockEnd
  0
BLOCK
  5
69BC
330
69BB
100
AcDbEntity
  8
0
100
AcDbBlockBegin
  2
*U99
 70
     1
 10
0.0
 20
0.0
 30
0.0
  3
*U99
  1
*U99
  0
CIRCLE
  5
69C2
330
69BB
100
AcDbEntity
  8
0
100
AcDbCircle
 10
0.0
 20
0.0
 30
0.0
 40
4.0
  0
ENDBLK
  5
69BD
330
69BB
100
AcDbEntity
  8
0
100
AcDbBlockEnd
  0
BLOCK
  5
69BF
330
69BE
100
AcDbEntity
  8
0
100
AcDbBlockBegin
  2
*U100
 70
     1
 10
0.0
 20
0.0
 30
0.0
  3
*U100
  1
*U100
  0
INSERT
  5
69CD
330
69BE
100
AcDbEntity
  8
0
  6
ByBlock
 62
     0
370
    -2
380
     1
100
AcDbBlockReference
  2
*U99
 10
1708.194700488486
 20
2815.452154575304
 30
0.0
  0
INSERT
  5
69CE
330
69BE
100
AcDbEntity
  8
0
  6
ByBlock
 62
     0
370
    -2
380
     1
100
AcDbBlockReference
  2
*U99
 10
1643.988963205191
 20
2970.458516306798
 30
0.0
 50
22.50000000000001
  0
INSERT
  5
69CF
330
69BE
100
AcDbEntity
  8
0
  6
ByBlock
 62
     0
370
    -2
380
     1
100
AcDbBlockReference
  2
*U99
 10
1525.352230113526
 20
3089.095249398463
 30
0.0
 50
45.0
  0
INSERT
  5
69D0
330
69BE
100
AcDbEntity
  8
0
  6
ByBlock
 62
     0
370
    -2
380
     1
100
AcDbBlockReference
  2
*U99
 10
1370.345868382032
 20
3153.300986681758
 30
0.0
 50
67.49999999999999
  0
INSERT
  5
69D1
330
69BE
100
AcDbEntity
  8
0
  6
ByBlock
 62
     0
370
    -2
380
     1
100
AcDbBlockReference
  2
*U99
 10
1202.568191448162
 20
3153.300986681758
 30
0.0
 50
89.99999999999999
  0
INSERT
  5
69D2
330
69BE
100
AcDbEntity
  8
0
  6
ByBlock
 62
     0
370
    -2
380
     1
100
AcDbBlockReference
  2
*U99
 10
1047.561829716668
 20
3089.095249398463
 30
0.0
 50
112.5
  0
INSERT
  5
69D3
330
69BE
100
AcDbEntity
  8
0
  6
ByBlock
 62
     0
370
    -2
380
     1
100
AcDbBlockReference
  2
*U99
 10
928.9250966250024
 20
2970.458516306798
 30
0.0
 50
134.9999999999999
  0
INSERT
  5
69D4
330
69BE
100
AcDbEntity
  8
0
  6
ByBlock
 62
     0
370
    -2
380
     1
100
AcDbBlockReference
  2
*U99
 10
864.7193593417082
 20
2815.452154575304
 30
0.0
 50
157.5
  0
INSERT
  5
69D5
330
69BE
100
AcDbEntity
  8
0
  6
ByBlock
 62
     0
370
    -2
380
     1
100
AcDbBlockReference
  2
*U99
 10
864.7193593417082
 20
2647.674477641434
 30
0.0
 50
180.0
  0
INSERT
  5
69D6
330
69BE
100
AcDbEntity
  8
0
  6
ByBlock
 62
     0
370
    -2
380
     1
100
AcDbBlockReference
  2
*U99
 10
928.9250966250031
 20
2492.668115909939
 30
0.0
 50
202.5000000000001
  0
INSERT
  5
69D7
330
69BE
100
AcDbEntity
  8
0
  6
ByBlock
 62
     0
370
    -2
380
     1
100
AcDbBlockReference
  2
*U99
 10
1047.561829716668
 20
2374.031382818274
 30
0.0
 50
225.0
  0
INSERT
  5
69D8
330
69BE
100
AcDbEntity
  8
0
  6
ByBlock
 62
     0
370
    -2
380
     1
100
AcDbBlockReference
  2
*U99
 10
1202.568191448162
 20
2309.82564553498
 30
0.0
 50
247.4999999999999
  0
INSERT
  5
69D9
330
69BE
100
AcDbEntity
  8
0
  6
ByBlock
 62
     0
370
    -2
380
     1
100
AcDbBlockReference
  2
*U99
 10
1370.345868382032
 20
2309.82564553498
 30
0.0
 50
269.9999999999999
  0
INSERT
  5
69DA
330
69BE
100
AcDbEntity
  8
0
  6
ByBlock
 62
     0
370
    -2
380
     1
100
AcDbBlockReference
  2
*U99
 10
1525.352230113526
 20
2374.031382818275
 30
0.0
 50
292.4999999999999
  0
INSERT
  5
69DB
330
69BE
100
AcDbEntity
  8
0
  6
ByBlock
 62
     0
370
    -2
380
     1
100
AcDbBlockReference
  2
*U99
 10
1643.988963205191
 20
2492.66811590994
 30
0.0
 50
314.9999999999998
  0
INSERT
  5
69DC
330
69BE
100
AcDbEntity
  8
0
  6
ByBlock
 62
     0
370
    -2
380
     1
100
AcDbBlockReference
  2
*U99
 10
1708.194700488486
 20
2647.674477641434
 30
0.0
 50
337.4999999999999
  0
ENDBLK
  5
69C0
330
69BE
100
AcDbEntity
  8
0
100
AcDbBlockEnd
  0
ENDSEC
  0
SECTION
  2
ENTITIES
  0
IMAGE
  5
478
330
254
100
AcDbEntity
  8
0
 92
        8
310
0800000000000000
100
AcDbRasterImage
 90
        0
 10
506.5853089461
 20
342.8287192337
 30
0.0
 11
0.1693333333
 21
0.0
 31
0.0
 12
0.0
 22
0.1693333333
 32
0.0
 13
377.0
 23
353.0
340
0
 70
     9
280
     0
281
    50
282
    50
283
     0
360
0
 71
     1
 91
        2
 14
-0.5
 24
-0.5
 14
376.5
 24
352.5
  0
HATCH
  5
489
330
254
100
AcDbEntity
  8
0
 62
     2
100
AcDbHatch
 10
0.0
 20
0.0
 30
0.0
210
0.0
220
0.0
230
1.0
  2
DEFAULT__17
 70
     0
 71
     0
 91
        2
 92
        1
 93
        4
 72
     1
 10
346.6676375884
 20
390.6545955857
 11
349.0676375884
 21
390.6545955857
 72
     1
 10
346.6676375884
 20
390.6545955857
 11
346.6676375884
 21
391.2545955857
 72
     1
 10
346.6676375884
 20
391.2545955857
 11
349.0676375884
 21
391.2545955857
 72
     1
 10
349.0676375884
 20
390.6545955857
 11
349.0676375884
 21
391.2545955857
 97
        0
 92
        1
 93
        4
 72
     1
 10
351.6676375883999
 20
390.6545955857
 11
354.0676375884
 21
390.6545955857
 72
     1
 10
351.6676375883999
 20
390.6545955857
 11
351.6676375883999
 21
391.2545955857
 72
     1
 10
351.6676375883999
 20
391.2545955857
 11
354.0676375884
 21
391.2545955857
 72
     1
 10
354.0676375884
 20
390.6545955857
 11
354.0676375884
 21
391.2545955857
 97
        0
 75
     0
 76
     0
 52
45.0
 41
11.88
 77
     0
 78
     1
 53
45.0
 43
0.0
 44
0.0
 45
-8.400428560499998
 46
8.400428560499998
 79
     0
 98
        1
 10
0.0
 20
0.0
  0
LINE
  5
5072
330
254
100
AcDbEntity
  8
ALL_ASSEM_MEMBER
  6
Continuous
 62
     7
100
AcDbLine
 10
611.4570299150972
 20
1734.967389495002
 30
0.0
 11
701.4570299150967
 21
1884.967389495671
 31
0.0
  0
LINE
  5
5073
330
254
100
AcDbEntity
  8
ALL_ASSEM_MEMBER
  6
Continuous
 62
     7
100
AcDbLine
 10
684.9570299150972
 20
869.967389496586
 30
0.0
 11
611.4570299150969
 21
1039.967389496525
 31
0.0
  0
LINE
  5
5074
330
254
100
AcDbEntity
  8
ALL_ASSEM_MEMBER
  6
Continuous
 62
     7
100
AcDbLine
 10
611.4570299150972
 20
1039.967389496525
 30
0.0
 11
611.4570299150972
 21
1734.967389495002
 31
0.0
  0
LWPOLYLINE
  5
5075
330
254
100
AcDbEntity
  8
ALL_ASSEM_MEMBER
  6
Continuous
 62
     7
100
AcDbPolyline
 90
       17
 70
     0
 43
0.0
 10
868.472136091597
 20
830.7673894956712
 10
868.230285889097
 20
830.8853449266715
 10
867.9942217745971
 20
830.9945692786714
 10
867.7631838545973
 20
831.0955571431717
 10
867.5364960750971
 20
831.1887168996712
 10
867.313547514097
 20
831.2743851241714
 10
867.0937949615966
 20
831.3528313981716
 10
866.876748728097
 20
831.4242694766717
 10
866.6619743420971
 20
831.4888621406714
 10
866.4490865305974
 20
831.5467288931717
 10
866.2377445960974
 20
831.5979528241713
 10
866.0276536500969
 20
831.6425859911714
 10
865.8185548770973
 20
831.6806572891714
 10
865.610228121597
 20
831.7121772481714
 10
865.402483167597
 20
831.7371447911715
 10
865.1951571335974
 20
831.7555521416714
 10
864.9881089175972
 20
831.7673894956712
  0
LWPOLYLINE
  5
5076
330
254
100
AcDbEntity
  8
ALL_ASSEM_MEMBER
  6
Continuous
 62
     7
100
AcDbPolyline
 90
       17
 70
     0
 43
0.0
 10
860.966582592097
 20
830.7673894956712
 10
860.8456574905972
 20
830.8853449266715
 10
860.7276254335967
 20
830.9945692786714
 10
860.6121064735971
 20
831.0955571431717
 10
860.4987625840969
 20
831.1887168996712
 10
860.387288303097
 20
831.2743851241714
 10
860.277412027097
 20
831.3528313981716
 10
860.168888910097
 20
831.4242694766717
 10
860.0615017170971
 20
831.4888621406714
 10
859.9550578115973
 20
831.5467288931717
 10
859.8493868445973
 20
831.5979528241713
 10
859.7443413715966
 20
831.6425859911714
 10
859.6397919850971
 20
831.6806572891714
 10
859.5356286070974
 20
831.7121772481714
 10
859.431756130097
 20
831.7371447911715
 10
859.3280931130971
 20
831.7555521416714
 10
859.2245690050972
 20
831.7673894956712
  0
LWPOLYLINE
  5
5077
330
254
100
AcDbEntity
  8
ALL_ASSEM_MEMBER
  6
Continuous
 62
     7
100
AcDbPolyline
 90
       17
 70
     0
 43
0.0
 10
872.224912841097
 20
830.7673894956712
 10
872.1039877400972
 20
830.8853449266715
 10
871.9859556825973
 20
830.9945692786714
 10
871.8704367230971
 20
831.0955571431717
 10
871.7570928330969
 20
831.1887168996712
 10
871.6456185525972
 20
831.2743851241714
 10
871.5357422765974
 20
831.3528313981716
 10
871.4272191595973
 20
831.4242694766717
 10
871.3198319665972
 20
831.4888621406714
 10
871.2133880605973
 20
831.5467288931717
 10
871.1077170935974
 20
831.5979528241713
 10
871.0026716205971
 20
831.6425859911714
 10
870.8981222340971
 20
831.6806572891714
 10
870.793958856597
 20
831.7121772481714
 10
870.690086379097
 20
831.7371447911715
 10
870.5864233625971
 20
831.7555521416714
 10
870.4828992540972
 20
831.7673894956712
  0
LINE
  5
5079
330
254
100
AcDbEntity
  8
ALL_ASSEM_MEMBER
  6
Continuous
 62
     7
100
AcDbLine
 10
871.2249128410972
 20
831.7673894956712
 30
0.0
 11
872.224912841097
 21
830.7673894956712
 31
0.0
  0
LINE
  5
507B
330
254
100
AcDbEntity
  8
ALL_ASSEM_MEMBER
  6
Continuous
 62
     7
100
AcDbLine
 10
878.219359342097
 20
819.9673894956712
 30
0.0
 11
873.219359342097
 21
826.4673894956711
 31
0.0
  0
LINE
  5
507C
330
254
100
AcDbEntity
  8
ALL_ASSEM_MEMBER
  6
Continuous
 62
     7
100
AcDbLine
 10
658.9570299150969
 20
779.9673894956712
 30
0.0
 11
658.9570299150969
 21
814.9673894956713
 31
0.0
  0
LINE
  5
507D
330
254
100
AcDbEntity
  8
ALL_ASSEM_MEMBER
  6
Continuous
 62
     7
100
AcDbLine
 10
660.9570299150971
 20
779.9673894956712
 30
0.0
 11
660.9570299150971
 21
814.9673894956713
 31
0.0
  0
LINE
  5
507E
330
254
100
AcDbEntity
  8
ALL_ASSEM_MEMBER
  6
Continuous
 62
     7
100
AcDbLine
 10
684.9570299150972
 20
819.9673894956712
 30
0.0
 11
684.9570299150972
 21
869.967389496586
 31
0.0
  0
LWPOLYLINE
  5
507F
330
254
100
AcDbEntity
  8
ALL_ASSEM_MEMBER
  6
Continuous
 62
     7
100
AcDbPolyline
 90
       17
 70
     0
 43
0.0
 10
932.677873375097
 20
830.7673894956712
 10
932.4360231720973
 20
830.8853449266715
 10
932.1999590575972
 20
830.9945692786714
 10
931.9689211380972
 20
831.0955571431717
 10
931.7422333585971
 20
831.1887168996712
 10
931.5192847970973
 20
831.2743851241714
 10
931.2995322450971
 20
831.3528313981716
 10
931.0824860110972
 20
831.4242694766717
 10
930.8677116250967
 20
831.4888621406714
 10
930.654823813597
 20
831.5467288931717
 10
930.4434818795972
 20
831.5979528241713
 10
930.2333909335972
 20
831.6425859911714
 10
930.0242921605972
 20
831.6806572891714
 10
929.8159654050972
 20
831.7121772481714
 10
929.6082204505971
 20
831.7371447911715
 10
929.400894417097
 20
831.7555521416714
 10
929.1938462005972
 20
831.7673894956712
  0
LWPOLYLINE
  5
5080
330
254
100
AcDbEntity
  8
ALL_ASSEM_MEMBER
  6
Continuous
 62
     7
100
AcDbPolyline
 90
       17
 70
     0
 43
0.0
 10
925.1723198755973
 20
830.7673894956712
 10
925.0513947740968
 20
830.8853449266715
 10
924.9333627165973
 20
830.9945692786714
 10
924.8178437570972
 20
831.0955571431717
 10
924.7044998670972
 20
831.1887168996712
 10
924.5930255865973
 20
831.2743851241714
 10
924.4831493105974
 20
831.3528313981716
 10
924.3746261935974
 20
831.4242694766717
 10
924.2672390005973
 20
831.4888621406714
 10
924.1607950950973
 20
831.5467288931717
 10
924.0551241275971
 20
831.5979528241713
 10
923.9500786545972
 20
831.6425859911714
 10
923.8455292680967
 20
831.6806572891714
 10
923.7413658905971
 20
831.7121772481714
 10
923.6374934130973
 20
831.7371447911715
 10
923.5338303965972
 20
831.7555521416714
 10
923.4303062885969
 20
831.7673894956712
  0
LWPOLYLINE
  5
5081
330
254
100
AcDbEntity
  8
ALL_ASSEM_MEMBER
  6
Continuous
 62
     7
100
AcDbPolyline
 90
       17
 70
     0
 43
0.0
 10
936.4306501245973
 20
830.7673894956712
 10
936.3097250230973
 20
830.8853449266715
 10
936.1916929660972
 20
830.9945692786714
 10
936.0761740060972
 20
831.0955571431717
 10
935.9628301165972
 20
831.1887168996712
 10
935.8513558355972
 20
831.2743851241714
 10
935.7414795595973
 20
831.3528313981716
 10
935.6329564425973
 20
831.4242694766717
 10
935.5255692495973
 20
831.4888621406714
 10
935.4191253440973
 20
831.5467288931717
 10
935.313454377097
 20
831.5979528241713
 10
935.2084089040967
 20
831.6425859911714
 10
935.1038595175972
 20
831.6806572891714
 10
934.9996961395973
 20
831.7121772481714
 10
934.8958236625971
 20
831.7371447911715
 10
934.7921606455972
 20
831.7555521416714
 10
934.6886365375972
 20
831.7673894956712
  0
LINE
  5
5082
330
254
100
AcDbEntity
  8
ALL_ASSEM_MEMBER
  6
Continuous
 62
     7
100
AcDbLine
 10
935.4306501245972
 20
831.7673894956712
 30
0.0
 11
936.4306501245973
 21
830.7673894956712
 31
0.0
  0
LINE
  5
5083
330
254
100
AcDbEntity
  8
ALL_ASSEM_MEMBER
  6
Continuous
 62
     7
100
AcDbLine
 10
941.9876547135968
 20
820.5360639806714
 30
0.0
 11
937.425096625097
 21
826.4673894956711
 31
0.0
  0
LWPOLYLINE
  5
5084
330
254
100
AcDbEntity
  8
ALL_ASSEM_MEMBER
  6
Continuous
 62
     7
100
AcDbPolyline
 90
       17
 70
     0
 43
0.0
 10
1713.689490825597
 20
831.7673894956712
 10
1713.585842983597
 20
831.7555340706713
 10
1713.482062187597
 20
831.7370942876712
 10
1713.378080281597
 20
831.7120819046714
 10
1713.273817951597
 20
831.6805071996713
 10
1713.169182635097
 20
831.6423744516715
 10
1713.064065888097
 20
831.5976765216714
 10
1712.958341126097
 20
831.5463888586714
 10
1712.851862348597
 20
831.4884635466716
 10
1712.744461694097
 20
831.4238225196714
 10
1712.635948944597
 20
831.3523516876717
 10
1712.526108371597
 20
831.2738933856715
 10
1712.414698744097
 20
831.1882408091717
 10
1712.301449858097
 20
831.0951300326712
 10
1712.186060249097
 20
830.9942325566714
 10
1712.068194525097
 20
830.8851473911715
 10
1711.947477238597
 20
830.7673894956712
  0
LWPOLYLINE
  5
5085
330
254
100
AcDbEntity
  8
ALL_ASSEM_MEMBER
  6
Continuous
 62
     7
100
AcDbPolyline
 90
       17
 70
     0
 43
0.0
 10
1702.431160576097
 20
831.7673894956712
 10
1702.327512734098
 20
831.7555340706713
 10
1702.223731938597
 20
831.7370942876712
 10
1702.119750032597
 20
831.7120819046714
 10
1702.015487702597
 20
831.6805071996713
 10
1701.910852386097
 20
831.6423744516715
 10
1701.805735638597
 20
831.5976765216714
 10
1701.700010877097
 20
831.5463888586714
 10
1701.593532099597
 20
831.4884635466716
 10
1701.486131444597
 20
831.4238225196714
 10
1701.377618695597
 20
831.3523516876717
 10
1701.267778122597
 20
831.2738933856715
 10
1701.156368495097
 20
831.1882408091717
 10
1701.043119608597
 20
831.0951300326712
 10
1700.927729999597
 20
830.9942325566714
 10
1700.809864275597
 20
830.8851473911715
 10
1700.689146989097
 20
830.7673894956712
  0
LWPOLYLINE
  5
5086
330
254
100
AcDbEntity
  8
ALL_ASSEM_MEMBER
  6
Continuous
 62
     7
100
AcDbPolyline
 90
       17
 70
     0
 43
0.0
 10
1649.483753542097
 20
831.7673894956712
 10
1649.380105700097
 20
831.7555340706713
 10
1649.276324904597
 20
831.7370942876712
 10
1649.172342998597
 20
831.7120819046714
 10
1649.068080668597
 20
831.6805071996713
 10
1648.963445352097
 20
831.6423744516715
 10
1648.858328604597
 20
831.5976765216714
 10
1648.752603842597
 20
831.5463888586714
 10
1648.646125065597
 20
831.4884635466716
 10
1648.538724410597
 20
831.4238225196714
 10
1648.430211661597
 20
831.3523516876717
 10
1648.320371088597
 20
831.2738933856715
 10
1648.208961460596
 20
831.1882408091717
 10
1648.095712574597
 20
831.0951300326712
 10
1647.980322965597
 20
830.9942325566714
 10
1647.862457241597
 20
830.8851473911715
 10
1647.741739955097
 20
830.7673894956712
  0
LWPOLYLINE
  5
5087
330
254
100
AcDbEntity
  8
ALL_ASSEM_MEMBER
  6
Continuous
 62
     7
100
AcDbPolyline
 90
       17
 70
     0
 43
0.0
 10
1638.225423293097
 20
831.7673894956712
 10
1638.121775451097
 20
831.7555340706713
 10
1638.017994655097
 20
831.7370942876712
 10
1637.914012749097
 20
831.7120819046714
 10
1637.809750419097
 20
831.6805071996713
 10
1637.705115102597
 20
831.6423744516715
 10
1637.599998355597
 20
831.5976765216714
 10
1637.494273593597
 20
831.5463888586714
 10
1637.387794816097
 20
831.4884635466716
 10
1637.280394161597
 20
831.4238225196714
 10
1637.171881412097
 20
831.3523516876717
 10
1637.062040839097
 20
831.2738933856715
 10
1636.950631211597
 20
831.1882408091717
 10
1636.837382325597
 20
831.0951300326712
 10
1636.721992716597
 20
830.9942325566714
 10
1636.604126992597
 20
830.8851473911715
 10
1636.483409706097
 20
830.7673894956712
  0
LWPOLYLINE
  5
5088
330
254
100
AcDbEntity
  8
ALL_ASSEM_MEMBER
  6
Continuous
 62
     7
100
AcDbPolyline
 90
       17
 70
     0
 43
0.0
 10
1707.925950913097
 20
831.7673894956712
 10
1707.718655229097
 20
831.7555340706713
 10
1707.511093637597
 20
831.7370942876712
 10
1707.303129825597
 20
831.7120819046714
 10
1707.094605165597
 20
831.6805071996713
 10
1706.885334532597
 20
831.6423744516715
 10
1706.675101038097
 20
831.5976765216714
 10
1706.463651514598
 20
831.5463888586714
 10
1706.250693960097
 20
831.4884635466716
 10
1706.035892650097
 20
831.4238225196714
 10
1705.818867151597
 20
831.3523516876717
 10
1705.599186005597
 20
831.2738933856715
 10
1705.376366750097
 20
831.1882408091717
 10
1705.149868978097
 20
831.0951300326712
 10
1704.919089760097
 20
830.9942325566714
 10
1704.683358312097
 20
830.8851473911715
 10
1704.441923739097
 20
830.7673894956712
  0
LWPOLYLINE
  5
5089
330
254
100
AcDbEntity
  8
ALL_ASSEM_MEMBER
  6
Continuous
 62
     7
100
AcDbPolyline
 90
       17
 70
     0
 43
0.0
 10
1643.720213629597
 20
831.7673894956712
 10
1643.512917945597
 20
831.7555340706713
 10
1643.305356354097
 20
831.7370942876712
 10
1643.097392542097
 20
831.7120819046714
 10
1642.888867882097
 20
831.6805071996713
 10
1642.679597249097
 20
831.6423744516715
 10
1642.469363754597
 20
831.5976765216714
 10
1642.257914231097
 20
831.5463888586714
 10
1642.044956676597
 20
831.4884635466716
 10
1641.830155366597
 20
831.4238225196714
 10
1641.613129868098
 20
831.3523516876717
 10
1641.393448722096
 20
831.2738933856715
 10
1641.170629467097
 20
831.1882408091717
 10
1640.944131695097
 20
831.0951300326712
 10
1640.713352476597
 20
830.9942325566714
 10
1640.477621028597
 20
830.8851473911715
 10
1640.236186455597
 20
830.7673894956712
  0
LINE
  5
508B
330
254
100
AcDbEntity
  8
ALL_ASSEM_MEMBER
  6
Continuous
 62
     7
100
AcDbLine
 10
658.9570299150969
 20
779.9673894956712
 30
0.0
 11
1913.957029915097
 21
779.9673894956712
 31
0.0
  0
LINE
  5
50A4
330
254
100
AcDbEntity
  8
ALL_ASSEM_MEMBER
  6
Continuous
 62
     7
100
AcDbLine
 10
663.9570299150971
 20
817.9673894956715
 30
0.0
 11
1631.473765375097
 21
817.9673894956715
 31
0.0
  0
LINE
  5
50A5
330
254
100
AcDbEntity
  8
ALL_ASSEM_MEMBER
  6
Continuous
 62
     7
100
AcDbLine
 10
1634.226869564597
 20
817.9673894956715
 30
0.0
 11
1908.957029915097
 21
817.9673894956715
 31
0.0
  0
LINE
  5
50A6
330
254
100
AcDbEntity
  8
ALL_ASSEM_MEMBER
  6
Continuous
 62
     7
100
AcDbLine
 10
663.9570299150971
 20
819.9673894956712
 30
0.0
 11
938.6871902655968
 21
819.9673894956712
 31
0.0
  0
LINE
  5
50A7
330
254
100
AcDbEntity
  8
ALL_ASSEM_MEMBER
  6
Continuous
 62
     7
100
AcDbLine
 10
1634.226869564597
 20
819.9673894956712
 30
0.0
 11
1908.957029915097
 21
819.9673894956712
 31
0.0
  0
LWPOLYLINE
  5
50AA
330
254
100
AcDbEntity
  8
ALL_ASSEM_MEMBER
  6
Continuous
 62
     7
100
AcDbPolyline
 90
       17
 70
     0
 43
0.0
 10
934.4198869620973
 20
831.7673894956712
 10
934.3162391200971
 20
831.7555340706713
 10
934.212458324097
 20
831.7370942876712
 10
934.1084764180973
 20
831.7120819046714
 10
934.0042140880973
 20
831.6805071996713
 10
933.8995787715967
 20
831.6423744516715
 10
933.7944620245974
 20
831.5976765216714
 10
933.6887372625971
 20
831.5463888586714
 10
933.5822584855971
 20
831.4884635466716
 10
933.4748578305973
 20
831.4238225196714
 10
933.3663450810972
 20
831.3523516876717
 10
933.2565045080968
 20
831.2738933856715
 10
933.1450948805968
 20
831.1882408091717
 10
933.0318459945972
 20
831.0951300326712
 10
932.9164563855977
 20
830.9942325566714
 10
932.7985906615966
 20
830.8851473911715
 10
932.677873375097
 20
830.7673894956712
  0
LWPOLYLINE
  5
50AB
330
254
100
AcDbEntity
  8
ALL_ASSEM_MEMBER
  6
Continuous
 62
     7
100
AcDbPolyline
 90
       17
 70
     0
 43
0.0
 10
923.161556712597
 20
831.7673894956712
 10
923.0579088705972
 20
831.7555340706713
 10
922.954128075097
 20
831.7370942876712
 10
922.8501461690973
 20
831.7120819046714
 10
922.7458838390972
 20
831.6805071996713
 10
922.6412485225972
 20
831.6423744516715
 10
922.5361317750971
 20
831.5976765216714
 10
922.4304070135971
 20
831.5463888586714
 10
922.3239282360973
 20
831.4884635466716
 10
922.2165275810974
 20
831.4238225196714
 10
922.1080148320973
 20
831.3523516876717
 10
921.9981742590973
 20
831.2738933856715
 10
921.8867646315969
 20
831.1882408091717
 10
921.7735157455973
 20
831.0951300326712
 10
921.6581261360968
 20
830.9942325566714
 10
921.5402604120972
 20
830.8851473911715
 10
921.4195431255971
 20
830.7673894956712
  0
LWPOLYLINE
  5
50AC
330
254
100
AcDbEntity
  8
ALL_ASSEM_MEMBER
  6
Continuous
 62
     7
100
AcDbPolyline
 90
       17
 70
     0
 43
0.0
 10
870.2141496785971
 20
831.7673894956712
 10
870.110501836597
 20
831.7555340706713
 10
870.0067210410971
 20
831.7370942876712
 10
869.9027391350972
 20
831.7120819046714
 10
869.7984768050972
 20
831.6805071996713
 10
869.6938414885973
 20
831.6423744516715
 10
869.5887247410968
 20
831.5976765216714
 10
869.482999979097
 20
831.5463888586714
 10
869.3765212020974
 20
831.4884635466716
 10
869.2691205470973
 20
831.4238225196714
 10
869.1606077980972
 20
831.3523516876717
 10
869.0507672250969
 20
831.2738933856715
 10
868.9393575970973
 20
831.1882408091717
 10
868.8261087110973
 20
831.0951300326712
 10
868.7107191020968
 20
830.9942325566714
 10
868.592853378097
 20
830.8851473911715
 10
868.472136091597
 20
830.7673894956712
  0
LWPOLYLINE
  5
50AD
330
254
100
AcDbEntity
  8
ALL_ASSEM_MEMBER
  6
Continuous
 62
     7
100
AcDbPolyline
 90
       17
 70
     0
 43
0.0
 10
858.9558194295971
 20
831.7673894956712
 10
858.852171587597
 20
831.7555340706713
 10
858.748390791597
 20
831.7370942876712
 10
858.6444088855969
 20
831.7120819046714
 10
858.5401465555971
 20
831.6805071996713
 10
858.4355112390971
 20
831.6423744516715
 10
858.3303944920967
 20
831.5976765216714
 10
858.2246697300972
 20
831.5463888586714
 10
858.1181909530972
 20
831.4884635466716
 10
858.0107902980969
 20
831.4238225196714
 10
857.9022775485975
 20
831.3523516876717
 10
857.7924369755974
 20
831.2738933856715
 10
857.6810273480972
 20
831.1882408091717
 10
857.5677784620973
 20
831.0951300326712
 10
857.4523888530974
 20
830.9942325566714
 10
857.334523129097
 20
830.8851473911715
 10
857.2138058425973
 20
830.7673894956712
  0
LWPOLYLINE
  5
50AE
330
254
100
AcDbEntity
  8
ALL_ASSEM_MEMBER
  6
Continuous
 62
     7
100
AcDbPolyline
 90
       17
 70
     0
 43
0.0
 10
928.6563470495973
 20
831.7673894956712
 10
928.4490513655974
 20
831.7555340706713
 10
928.241489774097
 20
831.7370942876712
 10
928.0335259620972
 20
831.7120819046714
 10
927.825001302097
 20
831.6805071996713
 10
927.6157306690972
 20
831.6423744516715
 10
927.405497174597
 20
831.5976765216714
 10
927.1940476510971
 20
831.5463888586714
 10
926.9810900965966
 20
831.4884635466716
 10
926.766288786597
 20
831.4238225196714
 10
926.5492632880969
 20
831.3523516876717
 10
926.3295821420966
 20
831.2738933856715
 10
926.1067628865967
 20
831.1882408091717
 10
925.8802651145973
 20
831.0951300326712
 10
925.649485896597
 20
830.9942325566714
 10
925.4137544485972
 20
830.8851473911715
 10
925.1723198755973
 20
830.7673894956712
  0
LWPOLYLINE
  5
50AF
330
254
100
AcDbEntity
  8
ALL_ASSEM_MEMBER
  6
Continuous
 62
     7
100
AcDbPolyline
 90
       17
 70
     0
 43
0.0
 10
864.4506097660968
 20
831.7673894956712
 10
864.2433140820971
 20
831.7555340706713
 10
864.0357524905969
 20
831.7370942876712
 10
863.8277886785967
 20
831.7120819046714
 10
863.6192640185972
 20
831.6805071996713
 10
863.4099933855972
 20
831.6423744516715
 10
863.1997598910968
 20
831.5976765216714
 10
862.9883103675973
 20
831.5463888586714
 10
862.7753528130972
 20
831.4884635466716
 10
862.5605515030969
 20
831.4238225196714
 10
862.3435260045972
 20
831.3523516876717
 10
862.1238448585973
 20
831.2738933856715
 10
861.9010256035974
 20
831.1882408091717
 10
861.6745278315972
 20
831.0951300326712
 10
861.4437486130975
 20
830.9942325566714
 10
861.2080171650971
 20
830.8851473911715
 10
860.966582592097
 20
830.7673894956712
  0
LINE
  5
50B2
330
254
100
AcDbEntity
  8
ALL_ASSEM_MEMBER
  6
Continuous
 62
     7
100
AcDbLine
 10
856.2193593420968
 20
826.4673894956711
 30
0.0
 11
873.219359342097
 21
826.4673894956711
 31
0.0
  0
LINE
  5
50B3
330
254
100
AcDbEntity
  8
ALL_ASSEM_MEMBER
  6
Continuous
 62
     7
100
AcDbLine
 10
920.425096625097
 20
826.4673894956711
 30
0.0
 11
937.425096625097
 21
826.4673894956711
 31
0.0
  0
LINE
  5
50B4
330
254
100
AcDbEntity
  8
ALL_ASSEM_MEMBER
  6
Continuous
 62
     7
100
AcDbLine
 10
1635.488963205097
 20
826.4673894956711
 30
0.0
 11
1652.488963205097
 21
826.4673894956711
 31
0.0
  0
LINE
  5
50B5
330
254
100
AcDbEntity
  8
ALL_ASSEM_MEMBER
  6
Continuous
 62
     7
100
AcDbLine
 10
1699.694700488597
 20
826.4673894956711
 30
0.0
 11
1716.694700488597
 21
826.4673894956711
 31
0.0
  0
LINE
  5
50BA
330
254
100
AcDbEntity
  8
ALL_ASSEM_MEMBER
  6
Continuous
 62
     7
100
AcDbLine
 10
858.2138058425973
 20
831.7673894956712
 30
0.0
 11
871.2249128410972
 21
831.7673894956712
 31
0.0
  0
LINE
  5
50BB
330
254
100
AcDbEntity
  8
ALL_ASSEM_MEMBER
  6
Continuous
 62
     7
100
AcDbLine
 10
922.4195431255973
 20
831.7673894956712
 30
0.0
 11
935.4306501245972
 21
831.7673894956712
 31
0.0
  0
LINE
  5
50BC
330
254
100
AcDbEntity
  8
ALL_ASSEM_MEMBER
  6
Continuous
 62
     7
100
AcDbLine
 10
1637.483409706097
 20
831.7673894956712
 30
0.0
 11
1650.494516704597
 21
831.7673894956712
 31
0.0
  0
LINE
  5
50BD
330
254
100
AcDbEntity
  8
ALL_ASSEM_MEMBER
  6
Continuous
 62
     7
100
AcDbLine
 10
1701.689146989097
 20
831.7673894956712
 30
0.0
 11
1714.700253988097
 21
831.7673894956712
 31
0.0
  0
LINE
  5
50CD
330
254
100
AcDbEntity
  8
ALL_ASSEM_MEMBER
  6
Continuous
 62
     7
100
AcDbLine
 10
857.2138058425973
 20
826.4673894956711
 30
0.0
 11
857.2138058425973
 21
830.7673894956712
 31
0.0
  0
LINE
  5
50CE
330
254
100
AcDbEntity
  8
ALL_ASSEM_MEMBER
  6
Continuous
 62
     7
100
AcDbLine
 10
860.719359342097
 20
817.9673894956715
 30
0.0
 11
860.719359342097
 21
801.9673894956715
 31
0.0
  0
LINE
  5
50CF
330
254
100
AcDbEntity
  8
ALL_ASSEM_MEMBER
  6
Continuous
 62
     7
100
AcDbLine
 10
860.966582592097
 20
826.4673894956711
 30
0.0
 11
860.966582592097
 21
830.7673894956712
 31
0.0
  0
LINE
  5
50D0
330
254
100
AcDbEntity
  8
ALL_ASSEM_MEMBER
  6
Continuous
 62
     7
100
AcDbLine
 10
868.472136091597
 20
826.4673894956711
 30
0.0
 11
868.472136091597
 21
830.7673894956712
 31
0.0
  0
LINE
  5
50D1
330
254
100
AcDbEntity
  8
ALL_ASSEM_MEMBER
  6
Continuous
 62
     7
100
AcDbLine
 10
868.7193593420968
 20
817.9673894956715
 30
0.0
 11
868.7193593420968
 21
801.9673894956715
 31
0.0
  0
LINE
  5
50D2
330
254
100
AcDbEntity
  8
ALL_ASSEM_MEMBER
  6
Continuous
 62
     7
100
AcDbLine
 10
872.224912841097
 20
826.4673894956711
 30
0.0
 11
872.224912841097
 21
830.7673894956712
 31
0.0
  0
LINE
  5
50E5
330
254
100
AcDbEntity
  8
ALL_ASSEM_MEMBER
  6
Continuous
 62
     7
100
AcDbLine
 10
921.4195431255971
 20
826.4673894956711
 30
0.0
 11
921.4195431255971
 21
830.7673894956712
 31
0.0
  0
LINE
  5
50E6
330
254
100
AcDbEntity
  8
ALL_ASSEM_MEMBER
  6
Continuous
 62
     7
100
AcDbLine
 10
924.925096625097
 20
817.9673894956715
 30
0.0
 11
924.925096625097
 21
801.9673894956715
 31
0.0
  0
LINE
  5
50E7
330
254
100
AcDbEntity
  8
ALL_ASSEM_MEMBER
  6
Continuous
 62
     7
100
AcDbLine
 10
925.1723198755973
 20
826.4673894956711
 30
0.0
 11
925.1723198755973
 21
830.7673894956712
 31
0.0
  0
LINE
  5
50E8
330
254
100
AcDbEntity
  8
ALL_ASSEM_MEMBER
  6
Continuous
 62
     7
100
AcDbLine
 10
932.677873375097
 20
826.4673894956711
 30
0.0
 11
932.677873375097
 21
830.7673894956712
 31
0.0
  0
LINE
  5
50E9
330
254
100
AcDbEntity
  8
ALL_ASSEM_MEMBER
  6
Continuous
 62
     7
100
AcDbLine
 10
932.925096625097
 20
817.9673894956715
 30
0.0
 11
932.925096625097
 21
801.9673894956715
 31
0.0
  0
LINE
  5
50EA
330
254
100
AcDbEntity
  8
ALL_ASSEM_MEMBER
  6
Continuous
 62
     7
100
AcDbLine
 10
936.4306501245973
 20
826.4673894956711
 30
0.0
 11
936.4306501245973
 21
830.7673894956712
 31
0.0
  0
LINE
  5
50FF
330
254
100
AcDbEntity
  8
ALL_ASSEM_MEMBER
  6
Continuous
 62
     7
100
AcDbLine
 10
993.957029915097
 20
912.4497667698497
 30
0.0
 11
993.957029915097
 21
889.9673894956713
 31
0.0
  0
LINE
  5
5101
330
254
100
AcDbEntity
  8
ALL_ASSEM_MEMBER
  6
Continuous
 62
     7
100
AcDbLine
 10
995.9570299150971
 20
889.9440578901712
 30
0.0
 11
995.9570299150971
 21
912.8484906567475
 31
0.0
  0
LWPOLYLINE
  5
5102
330
254
100
AcDbEntity
  8
ALL_ASSEM_MEMBER
  6
Continuous
 62
     7
100
AcDbPolyline
 90
       17
 70
     0
 43
0.0
 10
1647.741739955097
 20
830.7673894956712
 10
1647.499889752597
 20
830.8853449266715
 10
1647.263825638097
 20
830.9945692786714
 10
1647.032787718097
 20
831.0955571431717
 10
1646.806099938597
 20
831.1887168996712
 10
1646.583151377097
 20
831.2743851241714
 10
1646.363398825097
 20
831.3528313981716
 10
1646.146352591597
 20
831.4242694766717
 10
1645.931578205597
 20
831.4888621406714
 10
1645.718690394097
 20
831.5467288931717
 10
1645.507348459597
 20
831.5979528241713
 10
1645.297257513597
 20
831.6425859911714
 10
1645.088158740597
 20
831.6806572891714
 10
1644.879831985097
 20
831.7121772481714
 10
1644.672087031097
 20
831.7371447911715
 10
1644.464760997097
 20
831.7555521416714
 10
1644.257712781097
 20
831.7673894956712
  0
LINE
  5
5106
330
254
100
AcDbEntity
  8
ALL_ASSEM_MEMBER
  6
Continuous
 62
     7
100
AcDbLine
 10
1043.561829716597
 20
817.9673894956715
 30
0.0
 11
1043.561829716597
 21
801.9673894956715
 31
0.0
  0
LINE
  5
5107
330
254
100
AcDbEntity
  8
ALL_ASSEM_MEMBER
  6
Continuous
 62
     7
100
AcDbLine
 10
1051.561829716597
 20
817.9673894956715
 30
0.0
 11
1051.561829716597
 21
801.9673894956715
 31
0.0
  0
LWPOLYLINE
  5
5108
330
254
100
AcDbEntity
  8
ALL_ASSEM_MEMBER
  6
Continuous
 62
     7
100
AcDbPolyline
 90
       17
 70
     0
 43
0.0
 10
1711.947477238597
 20
830.7673894956712
 10
1711.705627035597
 20
830.8853449266715
 10
1711.469562921097
 20
830.9945692786714
 10
1711.238525001597
 20
831.0955571431717
 10
1711.011837222097
 20
831.1887168996712
 10
1710.788888660597
 20
831.2743851241714
 10
1710.569136108597
 20
831.3528313981716
 10
1710.352089874597
 20
831.4242694766717
 10
1710.137315488597
 20
831.4888621406714
 10
1709.924427677097
 20
831.5467288931717
 10
1709.713085743097
 20
831.5979528241713
 10
1709.502994797096
 20
831.6425859911714
 10
1709.293896024097
 20
831.6806572891714
 10
1709.085569268597
 20
831.7121772481714
 10
1708.877824314097
 20
831.7371447911715
 10
1708.670498280597
 20
831.7555521416714
 10
1708.463450064097
 20
831.7673894956712
  0
LINE
  5
5109
330
254
100
AcDbEntity
  8
ALL_ASSEM_MEMBER
  6
Continuous
 62
     7
100
AcDbLine
 10
1610.400472652098
 20
830.2689430956711
 30
0.0
 11
1628.052920499597
 21
819.6774743871715
 31
0.0
  0
LINE
  5
510A
330
254
100
AcDbEntity
  8
ALL_ASSEM_MEMBER
  6
Continuous
 62
     7
100
AcDbLine
 10
1611.457029915097
 20
831.9673894956713
 30
0.0
 11
1629.081912010597
 21
821.3924602386714
 31
0.0
  0
LWPOLYLINE
  5
5115
330
254
100
AcDbEntity
  8
ALL_ASSEM_MEMBER
  6
Continuous
 62
     7
100
AcDbPolyline
 90
       17
 70
     0
 43
0.0
 10
1640.236186455597
 20
830.7673894956712
 10
1640.115261354097
 20
830.8853449266715
 10
1639.997229297097
 20
830.9945692786714
 10
1639.881710337097
 20
831.0955571431717
 10
1639.768366447597
 20
831.1887168996712
 10
1639.656892166597
 20
831.2743851241714
 10
1639.547015890597
 20
831.3528313981716
 10
1639.438492773597
 20
831.4242694766717
 10
1639.331105580597
 20
831.4888621406714
 10
1639.224661675097
 20
831.5467288931717
 10
1639.118990708096
 20
831.5979528241713
 10
1639.013945235097
 20
831.6425859911714
 10
1638.909395848597
 20
831.6806572891714
 10
1638.805232470597
 20
831.7121772481714
 10
1638.701359993597
 20
831.7371447911715
 10
1638.597696976597
 20
831.7555521416714
 10
1638.494172868597
 20
831.7673894956712
  0
LWPOLYLINE
  5
5116
330
254
100
AcDbEntity
  8
ALL_ASSEM_MEMBER
  6
Continuous
 62
     7
100
AcDbPolyline
 90
       17
 70
     0
 43
0.0
 10
1651.494516704597
 20
830.7673894956712
 10
1651.373591603597
 20
830.8853449266715
 10
1651.255559546097
 20
830.9945692786714
 10
1651.140040586597
 20
831.0955571431717
 10
1651.026696696597
 20
831.1887168996712
 10
1650.915222416097
 20
831.2743851241714
 10
1650.805346140097
 20
831.3528313981716
 10
1650.696823023096
 20
831.4242694766717
 10
1650.589435830097
 20
831.4888621406714
 10
1650.482991924097
 20
831.5467288931717
 10
1650.377320957097
 20
831.5979528241713
 10
1650.272275484097
 20
831.6425859911714
 10
1650.167726097597
 20
831.6806572891714
 10
1650.063562719597
 20
831.7121772481714
 10
1649.959690242597
 20
831.7371447911715
 10
1649.856027226097
 20
831.7555521416714
 10
1649.752503117597
 20
831.7673894956712
  0
LINE
  5
5118
330
254
100
AcDbEntity
  8
ALL_ASSEM_MEMBER
  6
Continuous
 62
     7
100
AcDbLine
 10
1198.568191448097
 20
817.9673894956715
 30
0.0
 11
1198.568191448097
 21
801.9673894956715
 31
0.0
  0
LINE
  5
5119
330
254
100
AcDbEntity
  8
ALL_ASSEM_MEMBER
  6
Continuous
 62
     7
100
AcDbLine
 10
1206.568191448097
 20
817.9673894956715
 30
0.0
 11
1206.568191448097
 21
801.9673894956715
 31
0.0
  0
LWPOLYLINE
  5
511C
330
254
100
AcDbEntity
  8
ALL_ASSEM_MEMBER
  6
Continuous
 62
     7
100
AcDbPolyline
 90
       17
 70
     0
 43
0.0
 10
1704.441923739097
 20
830.7673894956712
 10
1704.320998637597
 20
830.8853449266715
 10
1704.202966580097
 20
830.9945692786714
 10
1704.087447620597
 20
831.0955571431717
 10
1703.974103730597
 20
831.1887168996712
 10
1703.862629450097
 20
831.2743851241714
 10
1703.752753174097
 20
831.3528313981716
 10
1703.644230057097
 20
831.4242694766717
 10
1703.536842864097
 20
831.4888621406714
 10
1703.430398958597
 20
831.5467288931717
 10
1703.324727991097
 20
831.5979528241713
 10
1703.219682518097
 20
831.6425859911714
 10
1703.115133131596
 20
831.6806572891714
 10
1703.010969754097
 20
831.7121772481714
 10
1702.907097276597
 20
831.7371447911715
 10
1702.803434260097
 20
831.7555521416714
 10
1702.699910151597
 20
831.7673894956712
  0
LWPOLYLINE
  5
511D
330
254
100
AcDbEntity
  8
ALL_ASSEM_MEMBER
  6
Continuous
 62
     7
100
AcDbPolyline
 90
       17
 70
     0
 43
0.0
 10
1715.700253988097
 20
830.7673894956712
 10
1715.579328886597
 20
830.8853449266715
 10
1715.461296829596
 20
830.9945692786714
 10
1715.345777869598
 20
831.0955571431717
 10
1715.232433980097
 20
831.1887168996712
 10
1715.120959699097
 20
831.2743851241714
 10
1715.011083423097
 20
831.3528313981716
 10
1714.902560306097
 20
831.4242694766717
 10
1714.795173113097
 20
831.4888621406714
 10
1714.688729207597
 20
831.5467288931717
 10
1714.583058240597
 20
831.5979528241713
 10
1714.478012767597
 20
831.6425859911714
 10
1714.373463381097
 20
831.6806572891714
 10
1714.269300003097
 20
831.7121772481714
 10
1714.165427526097
 20
831.7371447911715
 10
1714.061764509097
 20
831.7555521416714
 10
1713.958240401097
 20
831.7673894956712
  0
LINE
  5
511E
330
254
100
AcDbEntity
  8
ALL_ASSEM_MEMBER
  6
Continuous
 62
     7
100
AcDbLine
 10
1650.494516704597
 20
831.7673894956712
 30
0.0
 11
1651.494516704597
 21
830.7673894956712
 31
0.0
  0
LINE
  5
5120
330
254
100
AcDbEntity
  8
ALL_ASSEM_MEMBER
  6
Continuous
 62
     7
100
AcDbLine
 10
1714.700253988097
 20
831.7673894956712
 30
0.0
 11
1715.700253988097
 21
830.7673894956712
 31
0.0
  0
LINE
  5
5122
330
254
100
AcDbEntity
  8
02__ASM_ALL_AXES
  6
CENTER
 62
     2
100
AcDbLine
 10
1286.457029915097
 20
769.9673894956712
 30
0.0
 11
1286.457029915097
 21
1904.967389495671
 31
0.0
  0
LINE
  5
5124
330
254
100
AcDbEntity
  8
ALL_ASSEM_MEMBER
  6
Continuous
 62
     7
100
AcDbLine
 10
851.219359342097
 20
819.9673894956712
 30
0.0
 11
856.2193593420968
 21
826.4673894956711
 31
0.0
  0
LINE
  5
5129
330
254
100
AcDbEntity
  8
ALL_ASSEM_MEMBER
  6
Continuous
 62
     7
100
AcDbLine
 10
1657.488963205097
 20
819.9673894956712
 30
0.0
 11
1652.488963205097
 21
826.4673894956711
 31
0.0
  0
LINE
  5
512A
330
254
100
AcDbEntity
  8
ALL_ASSEM_MEMBER
  6
Continuous
 62
     7
100
AcDbLine
 10
915.425096625097
 20
819.9673894956712
 30
0.0
 11
920.425096625097
 21
826.4673894956711
 31
0.0
  0
LINE
  5
512B
330
254
100
AcDbEntity
  8
ALL_ASSEM_MEMBER
  6
Continuous
 62
     7
100
AcDbLine
 10
858.2138058425973
 20
831.7673894956712
 30
0.0
 11
857.2138058425973
 21
830.7673894956712
 31
0.0
  0
LINE
  5
5130
330
254
100
AcDbEntity
  8
ALL_ASSEM_MEMBER
  6
Continuous
 62
     7
100
AcDbLine
 10
1721.694700488597
 20
819.9673894956712
 30
0.0
 11
1716.694700488597
 21
826.4673894956711
 31
0.0
  0
LINE
  5
5131
330
254
100
AcDbEntity
  8
ALL_ASSEM_MEMBER
  6
Continuous
 62
     7
100
AcDbLine
 10
1366.345868382097
 20
817.9673894956715
 30
0.0
 11
1366.345868382097
 21
801.9673894956715
 31
0.0
  0
LINE
  5
5132
330
254
100
AcDbEntity
  8
ALL_ASSEM_MEMBER
  6
Continuous
 62
     7
100
AcDbLine
 10
1374.345868382097
 20
817.9673894956715
 30
0.0
 11
1374.345868382097
 21
801.9673894956715
 31
0.0
  0
LINE
  5
5134
330
254
100
AcDbEntity
  8
ALL_ASSEM_MEMBER
  6
Continuous
 62
     7
100
AcDbLine
 10
922.4195431255973
 20
831.7673894956712
 30
0.0
 11
921.4195431255971
 21
830.7673894956712
 31
0.0
  0
LINE
  5
513C
330
254
100
AcDbEntity
  8
ALL_ASSEM_MEMBER
  6
Continuous
 62
     7
100
AcDbLine
 10
1521.352230113597
 20
817.9673894956715
 30
0.0
 11
1521.352230113597
 21
801.9673894956715
 31
0.0
  0
LINE
  5
513D
330
254
100
AcDbEntity
  8
ALL_ASSEM_MEMBER
  6
Continuous
 62
     7
100
AcDbLine
 10
1529.352230113597
 20
817.9673894956715
 30
0.0
 11
1529.352230113597
 21
801.9673894956715
 31
0.0
  0
LINE
  5
5142
330
254
100
AcDbEntity
  8
ALL_ASSEM_MEMBER
  6
Continuous
 62
     7
100
AcDbLine
 10
1576.957029915097
 20
889.9440578901712
 30
0.0
 11
1576.957029915097
 21
900.0095702315272
 31
0.0
  0
LINE
  5
5143
330
254
100
AcDbEntity
  8
ALL_ASSEM_MEMBER
  6
Continuous
 62
     7
100
AcDbLine
 10
1578.957029915097
 20
899.76305342679
 30
0.0
 11
1578.957029915097
 21
889.9673894956713
 31
0.0
  0
LINE
  5
5148
330
254
100
AcDbEntity
  8
ALL_ASSEM_MEMBER
  6
Continuous
 62
     7
100
AcDbLine
 10
961.4570299150972
 20
831.9673894956713
 30
0.0
 11
943.8321478200974
 21
821.3924602386714
 31
0.0
  0
LINE
  5
5149
330
254
100
AcDbEntity
  8
ALL_ASSEM_MEMBER
  6
Continuous
 62
     7
100
AcDbLine
 10
962.5135871785973
 20
830.2689430956711
 30
0.0
 11
944.8611393310969
 21
819.6774743871715
 31
0.0
  0
LINE
  5
514D
330
254
100
AcDbEntity
  8
ALL_ASSEM_MEMBER
  6
Continuous
 62
     7
100
AcDbLine
 10
1636.483409706097
 20
826.4673894956711
 30
0.0
 11
1636.483409706097
 21
830.7673894956712
 31
0.0
  0
LINE
  5
514E
330
254
100
AcDbEntity
  8
ALL_ASSEM_MEMBER
  6
Continuous
 62
     7
100
AcDbLine
 10
1639.988963205097
 20
817.9673894956715
 30
0.0
 11
1639.988963205097
 21
801.9673894956715
 31
0.0
  0
LINE
  5
514F
330
254
100
AcDbEntity
  8
ALL_ASSEM_MEMBER
  6
Continuous
 62
     7
100
AcDbLine
 10
1640.236186455597
 20
826.4673894956711
 30
0.0
 11
1640.236186455597
 21
830.7673894956712
 31
0.0
  0
LINE
  5
5150
330
254
100
AcDbEntity
  8
ALL_ASSEM_MEMBER
  6
Continuous
 62
     7
100
AcDbLine
 10
1647.741739955097
 20
826.4673894956711
 30
0.0
 11
1647.741739955097
 21
830.7673894956712
 31
0.0
  0
LINE
  5
5151
330
254
100
AcDbEntity
  8
ALL_ASSEM_MEMBER
  6
Continuous
 62
     7
100
AcDbLine
 10
1647.988963205097
 20
817.9673894956715
 30
0.0
 11
1647.988963205097
 21
801.9673894956715
 31
0.0
  0
LINE
  5
5154
330
254
100
AcDbEntity
  8
ALL_ASSEM_MEMBER
  6
Continuous
 62
     7
100
AcDbLine
 10
1651.494516704597
 20
826.4673894956711
 30
0.0
 11
1651.494516704597
 21
830.7673894956712
 31
0.0
  0
LINE
  5
5157
330
254
100
AcDbEntity
  8
ALL_ASSEM_MEMBER
  6
Continuous
 62
     7
100
AcDbLine
 10
1700.689146989097
 20
826.4673894956711
 30
0.0
 11
1700.689146989097
 21
830.7673894956712
 31
0.0
  0
LINE
  5
5159
330
254
100
AcDbEntity
  8
ALL_ASSEM_MEMBER
  6
Continuous
 62
     7
100
AcDbLine
 10
1704.194700488597
 20
817.9673894956715
 30
0.0
 11
1704.194700488597
 21
801.9673894956715
 31
0.0
  0
LINE
  5
515A
330
254
100
AcDbEntity
  8
ALL_ASSEM_MEMBER
  6
Continuous
 62
     7
100
AcDbLine
 10
1704.441923739097
 20
826.4673894956711
 30
0.0
 11
1704.441923739097
 21
830.7673894956712
 31
0.0
  0
LINE
  5
515B
330
254
100
AcDbEntity
  8
ALL_ASSEM_MEMBER
  6
Continuous
 62
     7
100
AcDbLine
 10
1711.947477238597
 20
826.4673894956711
 30
0.0
 11
1711.947477238597
 21
830.7673894956712
 31
0.0
  0
LINE
  5
515C
330
254
100
AcDbEntity
  8
ALL_ASSEM_MEMBER
  6
Continuous
 62
     7
100
AcDbLine
 10
1712.194700488597
 20
817.9673894956715
 30
0.0
 11
1712.194700488597
 21
801.9673894956715
 31
0.0
  0
LINE
  5
515D
330
254
100
AcDbEntity
  8
ALL_ASSEM_MEMBER
  6
Continuous
 62
     7
100
AcDbLine
 10
1715.700253988097
 20
826.4673894956711
 30
0.0
 11
1715.700253988097
 21
830.7673894956712
 31
0.0
  0
LINE
  5
5198
330
254
100
AcDbEntity
  8
ALL_ASSEM_MEMBER
  6
Continuous
 62
     7
100
AcDbLine
 10
1630.926405117097
 20
820.5360639806714
 30
0.0
 11
1635.488963205097
 21
826.4673894956711
 31
0.0
  0
LINE
  5
51A3
330
254
100
AcDbEntity
  8
ALL_ASSEM_MEMBER
  6
Continuous
 62
     7
100
AcDbLine
 10
1911.957029915097
 20
779.9673894956712
 30
0.0
 11
1911.957029915097
 21
814.9673894956713
 31
0.0
  0
LINE
  5
51A4
330
254
100
AcDbEntity
  8
ALL_ASSEM_MEMBER
  6
Continuous
 62
     7
100
AcDbLine
 10
1913.957029915097
 20
779.9673894956712
 30
0.0
 11
1913.957029915097
 21
814.9673894956713
 31
0.0
  0
LINE
  5
51AF
330
254
100
AcDbEntity
  8
ALL_ASSEM_MEMBER
  6
Continuous
 62
     7
100
AcDbLine
 10
1694.694700488597
 20
819.9673894956712
 30
0.0
 11
1699.694700488597
 21
826.4673894956711
 31
0.0
  0
LINE
  5
51B0
330
254
100
AcDbEntity
  8
ALL_ASSEM_MEMBER
  6
Continuous
 62
     7
100
AcDbLine
 10
1637.483409706097
 20
831.7673894956712
 30
0.0
 11
1636.483409706097
 21
830.7673894956712
 31
0.0
  0
LINE
  5
51BA
330
254
100
AcDbEntity
  8
ALL_ASSEM_MEMBER
  6
Continuous
 62
     7
100
AcDbLine
 10
1701.689146989097
 20
831.7673894956712
 30
0.0
 11
1700.689146989097
 21
830.7673894956712
 31
0.0
  0
ARC
  5
64E8
330
254
100
AcDbEntity
  8
ALL_ASSEM_MEMBER
  6
Continuous
 62
     7
100
AcDbCircle
 10
663.9570299150971
 20
814.9673894956713
 30
0.0
 40
5.0
100
AcDbArc
 50
90.0
 51
180.0
  0
ARC
  5
64E9
330
254
100
AcDbEntity
  8
ALL_ASSEM_MEMBER
  6
Continuous
 62
     7
100
AcDbCircle
 10
663.9570299150971
 20
814.9673894956713
 30
0.0
 40
3.0
100
AcDbArc
 50
90.0
 51
180.0
  0
ARC
  5
64EA
330
254
100
AcDbEntity
  8
ALL_ASSEM_MEMBER
  6
Continuous
 62
     7
100
AcDbCircle
 10
938.6871902655968
 20
829.9673894956711
 30
0.0
 40
12.0
100
AcDbArc
 50
270.0
 51
300.9637565320958
  0
ARC
  5
64EB
330
254
100
AcDbEntity
  8
ALL_ASSEM_MEMBER
  6
Continuous
 62
     7
100
AcDbCircle
 10
938.6871902655968
 20
829.9673894956711
 30
0.0
 40
10.0
100
AcDbArc
 50
270.0
 51
300.9637565320958
  0
ARC
  5
64EE
330
254
100
AcDbEntity
  8
ALL_ASSEM_MEMBER
  6
Continuous
 62
     7
100
AcDbCircle
 10
922.9766234010973
 20
891.6352896976714
 30
0.0
 40
73.0
100
AcDbArc
 50
302.7927772513051
 51
358.672477874396
  0
ARC
  5
64EF
330
254
100
AcDbEntity
  8
ALL_ASSEM_MEMBER
  6
Continuous
 62
     7
100
AcDbCircle
 10
922.9766234010973
 20
891.6352896976714
 30
0.0
 40
71.0
100
AcDbArc
 50
302.8183614214055
 51
358.6539093815018
  0
ARC
  5
64FF
330
254
100
AcDbEntity
  8
ALL_ASSEM_MEMBER
  6
Continuous
 62
     7
100
AcDbCircle
 10
1649.937436429597
 20
891.6352896976714
 30
0.0
 40
73.0
100
AcDbArc
 50
181.327522125591
 51
237.2072227486949
  0
ARC
  5
6500
330
254
100
AcDbEntity
  8
ALL_ASSEM_MEMBER
  6
Continuous
 62
     7
100
AcDbCircle
 10
1649.937436429597
 20
891.6352896976714
 30
0.0
 40
71.0
100
AcDbArc
 50
181.346090618498
 51
237.1816385785944
  0
ARC
  5
6501
330
254
100
AcDbEntity
  8
ALL_ASSEM_MEMBER
  6
Continuous
 62
     7
100
AcDbCircle
 10
1634.226869564597
 20
829.9673894956711
 30
0.0
 40
12.0
100
AcDbArc
 50
239.0362434679041
 51
270.0
  0
ARC
  5
6502
330
254
100
AcDbEntity
  8
ALL_ASSEM_MEMBER
  6
Continuous
 62
     7
100
AcDbCircle
 10
1634.226869564597
 20
829.9673894956711
 30
0.0
 40
10.0
100
AcDbArc
 50
239.0362434679041
 51
270.0
  0
ARC
  5
6504
330
254
100
AcDbEntity
  8
ALL_ASSEM_MEMBER
  6
Continuous
 62
     7
100
AcDbCircle
 10
1908.957029915097
 20
814.9673894956713
 30
0.0
 40
5.0
100
AcDbArc
 50
0.0
 51
90.0
  0
ARC
  5
6506
330
254
100
AcDbEntity
  8
ALL_ASSEM_MEMBER
  6
Continuous
 62
     7
100
AcDbCircle
 10
1908.957029915097
 20
814.9673894956713
 30
0.0
 40
3.0
100
AcDbArc
 50
0.0
 51
90.0
  0
ARC
  5
650F
330
254
100
AcDbEntity
  8
ALL_ASSEM_MEMBER
  6
Continuous
 62
     7
100
AcDbCircle
 10
1411.457029915097
 20
1884.967389495671
 30
0.0
 40
33.23538406300001
100
AcDbArc
 50
359.1392528099926
 51
180.8607471899944
  0
ARC
  5
6510
330
254
100
AcDbEntity
  8
ALL_ASSEM_MEMBER
  6
Continuous
 62
     7
100
AcDbCircle
 10
1411.457029915097
 20
1884.967389495671
 30
0.0
 40
19.2353840605
100
AcDbArc
 50
358.5038351608941
 51
181.4961648390928
  0
LINE
  5
67EA
330
254
100
AcDbEntity
  8
0
100
AcDbLine
 10
658.9570299150969
 20
560.7379464967087
 30
0.0
 11
959.3628753132582
 21
560.7379464967087
 31
0.0
  0
LINE
  5
67EB
330
254
100
AcDbEntity
  8
0
100
AcDbLine
 10
1913.957029915097
 20
560.7379464967087
 30
0.0
 11
1913.957029915097
 21
260.3321010985478
 31
0.0
  0
LINE
  5
67EC
330
254
100
AcDbEntity
  8
0
100
AcDbLine
 10
1913.957029915097
 20
-694.2620535032911
 30
0.0
 11
1613.551184516936
 21
-694.2620535032911
 31
0.0
  0
LINE
  5
67ED
330
254
100
AcDbEntity
  8
0
100
AcDbLine
 10
658.9570299150969
 20
-694.2620535032911
 30
0.0
 11
658.9570299150969
 21
-393.8562081051299
 31
0.0
  0
LINE
  5
67EE
330
254
100
AcDbEntity
  8
02__ASM_ALL_AXES
  6
CENTER
 62
     2
100
AcDbLine
 10
1286.457029915097
 20
628.2379464967084
 30
0.0
 11
1286.457029915097
 21
-761.7620535032909
 31
0.0
  0
LINE
  5
67EF
330
254
100
AcDbEntity
  8
02__ASM_ALL_AXES
  6
CENTER
 62
     2
100
AcDbLine
 10
591.457029915097
 20
-66.7620535032911
 30
0.0
 11
1981.457029915097
 21
-66.7620535032911
 31
0.0
  0
CIRCLE
  5
67F0
330
254
100
AcDbEntity
  8
0
100
AcDbCircle
 10
1286.457029915097
 20
-66.7620535032911
 30
0.0
 40
318.0
  0
CIRCLE
  5
67F1
330
254
100
AcDbEntity
  8
0
100
AcDbCircle
 10
1286.457029915097
 20
-66.7620535032911
 30
0.0
 40
404.0
  0
CIRCLE
  5
67F2
330
254
100
AcDbEntity
  8
0
100
AcDbCircle
 10
1286.457029915097
 20
-66.7620535032911
 30
0.0
 40
210.0
  0
LINE
  5
67F8
330
254
100
AcDbEntity
  8
0
  6
Continuous
 62
     7
100
AcDbLine
 10
998.1177071690947
 20
-658.7983656942891
 30
0.0
 11
1001.733965768097
 21
-659.7441966542906
 31
0.0
  0
LINE
  5
67FA
330
254
100
AcDbEntity
  8
ALL_ASSEM_MEMBER
  6
Continuous
 62
     7
100
AcDbLine
 10
1025.555384635096
 20
-652.5240803622878
 30
0.0
 11
1022.402692765096
 21
-651.2181926322958
 31
0.0
  0
LINE
  5
67FB
330
254
100
AcDbEntity
  8
0
  6
Continuous
 62
     7
100
AcDbLine
 10
993.2896090370984
 20
-656.5172359902939
 30
0.0
 11
998.1177071690947
 21
-658.7983656942891
 31
0.0
  0
LINE
  5
67FC
330
254
100
AcDbEntity
  8
0
  6
Continuous
 62
     7
100
AcDbLine
 10
988.905021190098
 20
-653.4936947372921
 30
0.0
 11
993.2896090370984
 21
-656.5172359902939
 31
0.0
  0
LINE
  5
67FD
330
254
100
AcDbEntity
  8
0
  6
Continuous
 62
     7
100
AcDbLine
 10
965.9043262800992
 20
-634.5114363342877
 30
0.0
 11
969.8594788300983
 21
-637.6823269352902
 31
0.0
  0
LINE
  5
67FE
330
254
100
AcDbEntity
  8
0
  6
Continuous
 62
     7
100
AcDbLine
 10
969.8594788300983
 20
-637.6823269352902
 30
0.0
 11
974.8676381710961
 21
-641.7668960412852
 31
0.0
  0
LINE
  5
67FF
330
254
100
AcDbEntity
  8
0
  6
Continuous
 62
     7
100
AcDbLine
 10
984.7649179540972
 20
-650.1035262052904
 30
0.0
 11
988.905021190098
 21
-653.4936947372921
 31
0.0
  0
LINE
  5
6800
330
254
100
AcDbEntity
  8
0
  6
Continuous
 62
     7
100
AcDbLine
 10
974.8676381710961
 20
-641.7668960412852
 30
0.0
 11
979.8147013830971
 21
-645.9157464782915
 31
0.0
  0
LINE
  5
6801
330
254
100
AcDbEntity
  8
0
  6
Continuous
 62
     7
100
AcDbLine
 10
979.8147013830971
 20
-645.9157464782915
 30
0.0
 11
984.7649179540972
 21
-650.1035262052904
 31
0.0
  0
LINE
  5
6802
330
254
100
AcDbEntity
  8
0
  6
Continuous
 62
     7
100
AcDbLine
 10
962.1016245250979
 20
-631.17053085829
 30
0.0
 11
965.9043262800992
 21
-634.5114363342877
 31
0.0
  0
LINE
  5
6804
330
254
100
AcDbEntity
  8
0
  6
Continuous
 62
     7
100
AcDbLine
 10
1001.733965768097
 20
-659.7441966542906
 30
0.0
 11
1005.430451595097
 21
-660.0825365332863
 31
0.0
  0
LWPOLYLINE
  5
6807
330
254
100
AcDbEntity
  8
ALL_ASSEM_MEMBER
  6
Continuous
 62
     7
100
AcDbPolyline
 90
       36
 70
     0
 43
0.0
 10
979.1577910250966
 20
-610.3951150922807
 10
979.3540456520972
 20
-610.4626992552952
 10
979.5419627300967
 20
-610.5317437212947
 10
979.7222791540976
 20
-610.6023839542906
 10
979.895634364097
 20
-610.6747566962954
 10
980.0625887230983
 20
-610.74900214329
 10
980.2236245970984
 20
-610.8252595462841
 10
980.3791607990975
 20
-610.9036688022902
 10
980.5295593530956
 20
-610.9843693612933
 10
980.6751350390973
 20
-611.0675010592972
 10
980.8161474010981
 20
-611.1531950072899
 10
980.9528191850953
 20
-611.2415791822935
 10
981.0853402220966
 20
-611.3327769322937
 10
981.2138692780957
 20
-611.4269040072907
 10
981.3385385210972
 20
-611.5240672372897
 10
981.4594607280982
 20
-611.6243658572934
 10
981.5767350860975
 20
-611.7278928802992
 10
981.6904498640964
 20
-611.8347346652957
 10
981.800687113097
 20
-611.944972951293
 10
981.9075275070975
 20
-612.0586883772926
 10
982.0110528180959
 20
-612.1759629482917
 10
982.1113494500972
 20
-612.2968849112879
 10
982.2085103260963
 20
-612.4215532482926
 10
982.3026348090976
 20
-612.550080804293
 10
982.3938297490974
 20
-612.6825996822884
 10
982.4822110160972
 20
-612.8192687402919
 10
982.567901821098
 20
-612.9602775082899
 10
982.6510301430976
 20
-613.1058486042897
 10
982.7317291200966
 20
-613.2562453362846
 10
982.8101363330974
 20
-613.4117784592895
 10
982.8863913680985
 20
-613.5728100822894
 10
982.9606346240984
 20
-613.7397599922921
 10
983.0330062660983
 20
-613.9131128312879
 10
983.1036457150972
 20
-614.0934273842872
 10
983.172689836098
 20
-614.2813435642897
 10
983.240273929096
 20
-614.4775979972914
  0
LWPOLYLINE
  5
6808
330
254
100
AcDbEntity
  8
ALL_ASSEM_MEMBER
  6
Continuous
 62
     7
100
AcDbPolyline
 90
        9
 70
     0
 43
0.0
 10
1024.583856893096
 20
-627.9578509292846
 10
1022.249875252097
 20
-627.0993507542883
 10
1019.911141816097
 20
-626.1487150922917
 10
1017.594101096098
 20
-625.1088912482887
 10
1015.326187640098
 20
-623.9855923712897
 10
1013.141838300097
 20
-622.7910977662909
 10
1011.081723159096
 20
-621.546075299288
 10
1009.180985919098
 20
-620.2753995622847
 10
1008.914131363097
 20
-620.0778192842849
  0
LWPOLYLINE
  5
680A
330
254
100
AcDbEntity
  8
ALL_ASSEM_MEMBER
  6
Continuous
 62
     7
100
AcDbPolyline
 90
       10
 70
     0
 43
0.0
 10
1003.282512444097
 20
-625.7007699902902
 10
1004.505528506099
 20
-626.6118681122902
 10
1006.845781887096
 20
-628.1763646872938
 10
1009.398963704096
 20
-629.7085866882921
 10
1012.196340242097
 20
-631.2120346732995
 10
1015.219516778096
 20
-632.6610064512864
 10
1018.363335307095
 20
-633.9997035862839
 10
1021.508046023097
 20
-635.1860071112901
 10
1024.538844988098
 20
-636.1970593582887
 10
1025.078995535096
 20
-636.3560972842974
  0
LINE
  5
680B
330
254
100
AcDbEntity
  8
ALL_ASSEM_MEMBER
  6
Continuous
 62
     7
100
AcDbLine
 10
966.6326327850951
 20
-623.4672223312887
 30
0.0
 11
970.1681666900972
 21
-627.0027562372856
 31
0.0
  0
LINE
  5
680C
330
254
100
AcDbEntity
  8
ALL_ASSEM_MEMBER
  6
Continuous
 62
     7
100
AcDbLine
 10
966.6326327850951
 20
-622.7601155502857
 30
0.0
 11
970.875273472097
 21
-627.0027562372856
 31
0.0
  0
LINE
  5
680D
330
254
100
AcDbEntity
  8
ALL_ASSEM_MEMBER
  6
Continuous
 62
     7
100
AcDbLine
 10
974.9952292290966
 20
-611.889407546289
 30
0.0
 11
981.7459814760992
 21
-618.640159792289
 31
0.0
  0
LINE
  5
680E
330
254
100
AcDbEntity
  8
ALL_ASSEM_MEMBER
  6
Continuous
 62
     7
100
AcDbLine
 10
1022.874932160097
 20
-653.8294135152905
 30
0.0
 11
985.281515382098
 21
-616.235996736294
 31
0.0
  0
LINE
  5
680F
330
254
100
AcDbEntity
  8
ALL_ASSEM_MEMBER
  6
Continuous
 62
     7
100
AcDbLine
 10
977.3993922850971
 20
-608.3538736402991
 30
0.0
 11
954.4177923490975
 21
-585.3722737042849
 31
0.0
  0
LINE
  5
6810
330
254
100
AcDbEntity
  8
ALL_ASSEM_MEMBER
  6
Continuous
 62
     7
100
AcDbLine
 10
985.7952265550979
 20
-615.6183370602962
 30
0.0
 11
978.0170519620993
 21
-607.8401624672848
 31
0.0
  0
LINE
  5
6811
330
254
100
AcDbEntity
  8
ALL_ASSEM_MEMBER
  6
Continuous
 62
     7
100
AcDbLine
 10
1024.318531996098
 20
-653.1516930072906
 30
0.0
 11
984.5224343490976
 21
-613.3555953602922
 31
0.0
  0
LINE
  5
6812
330
254
100
AcDbEntity
  8
ALL_ASSEM_MEMBER
  6
Continuous
 62
     7
100
AcDbLine
 10
980.2797936610973
 20
-609.112954673285
 30
0.0
 11
954.9753880210976
 21
-583.8085490322851
 31
0.0
  0
LINE
  5
6813
330
254
100
AcDbEntity
  8
ALL_ASSEM_MEMBER
  6
Continuous
 62
     7
100
AcDbLine
 10
1024.493863649095
 20
-649.084383973292
 30
0.0
 11
956.6215244040962
 21
-581.2120447282873
 31
0.0
  0
LINE
  5
6814
330
254
100
AcDbEntity
  8
ALL_ASSEM_MEMBER
  6
Continuous
 62
     7
100
AcDbLine
 10
994.6039098010974
 20
-617.4162555322986
 30
0.0
 11
1003.089191175095
 21
-625.9015369062913
 31
0.0
  0
LINE
  5
6815
330
254
100
AcDbEntity
  8
ALL_ASSEM_MEMBER
  6
Continuous
 62
     7
100
AcDbLine
 10
981.3404541320963
 20
-603.8096541122873
 30
0.0
 11
994.7754826760981
 21
-617.2446826562885
 31
0.0
  0
LINE
  5
6816
330
254
100
AcDbEntity
  8
ALL_ASSEM_MEMBER
  6
Continuous
 62
     7
100
AcDbLine
 10
981.9955863630973
 20
-603.4748368492877
 30
0.0
 11
990.1605521720979
 21
-611.6398026592873
 31
0.0
  0
LINE
  5
6817
330
254
100
AcDbEntity
  8
ALL_ASSEM_MEMBER
  6
Continuous
 62
     7
100
AcDbLine
 10
992.2818725150978
 20
-608.1042687532904
 30
0.0
 11
985.5311202680972
 21
-601.3535165062934
 31
0.0
  0
LINE
  5
6818
330
254
100
AcDbEntity
  8
ALL_ASSEM_MEMBER
  6
Continuous
 62
     7
100
AcDbLine
 10
1001.492997097097
 20
-610.5271682352909
 30
0.0
 11
1009.978278471097
 21
-619.0124496092908
 31
0.0
  0
LINE
  5
681B
330
254
100
AcDbEntity
  8
0
  6
Continuous
 62
     7
100
AcDbLine
 10
958.6803994870974
 20
-627.434837538291
 30
0.0
 11
962.1016245250979
 21
-631.17053085829
 31
0.0
  0
LINE
  5
681C
330
254
100
AcDbEntity
  8
0
  6
Continuous
 62
     7
100
AcDbLine
 10
955.6208386340953
 20
-622.7361338052872
 30
0.0
 11
958.6803994870974
 21
-627.434837538291
 31
0.0
  0
LINE
  5
681D
330
254
100
AcDbEntity
  8
0
  6
Continuous
 62
     7
100
AcDbLine
 10
1005.430451595097
 20
-660.0825365332863
 30
0.0
 11
1008.986256529097
 21
-659.7299556392904
 31
0.0
  0
LINE
  5
681E
330
254
100
AcDbEntity
  8
ALL_ASSEM_MEMBER
  6
Continuous
 62
     7
100
AcDbLine
 10
970.875273472097
 20
-627.0027562372856
 30
0.0
 11
970.1681666900972
 21
-627.0027562372856
 31
0.0
  0
LINE
  5
681F
330
254
100
AcDbEntity
  8
ALL_ASSEM_MEMBER
  6
Continuous
 62
     7
100
AcDbLine
 10
981.7459814760992
 20
-618.640159792289
 30
0.0
 11
983.1601950380976
 21
-618.640159792289
 31
0.0
  0
LINE
  5
6820
330
254
100
AcDbEntity
  8
ALL_ASSEM_MEMBER
  6
Continuous
 62
     7
100
AcDbLine
 10
977.1165495720984
 20
-608.3538736402991
 30
0.0
 11
978.5307631350956
 21
-608.3538736402991
 31
0.0
  0
LINE
  5
6821
330
254
100
AcDbEntity
  8
ALL_ASSEM_MEMBER
  6
Continuous
 62
     7
100
AcDbLine
 10
985.5311202680972
 20
-601.3535165062934
 30
0.0
 11
984.1169067060953
 21
-601.3535165062934
 31
0.0
  0
LWPOLYLINE
  5
6822
330
254
100
AcDbEntity
  8
ALL_ASSEM_MEMBER
  6
Continuous
 62
     7
100
AcDbPolyline
 90
       36
 70
     0
 43
0.0
 10
983.240273929096
 20
-614.4775979972914
 10
983.3705688590967
 20
-614.4792224622947
 10
983.4942455510978
 20
-614.4840265422904
 10
983.6118228110976
 20
-614.4919276112855
 10
983.7237460320979
 20
-614.5028683652857
 10
983.8304004400983
 20
-614.5168138612866
 10
983.9321129950972
 20
-614.5337479442971
 10
984.0291628330984
 20
-614.5536708362929
 10
984.1217866080974
 20
-614.5765966162948
 10
984.2101854490977
 20
-614.6025514682848
 10
984.2945212330962
 20
-614.6315688392937
 10
984.3749290270976
 20
-614.6636890242883
 10
984.4515203670983
 20
-614.6989570782903
 10
984.524385390098
 20
-614.7374201192873
 10
984.5935965150967
 20
-614.7791252322861
 10
984.6592135160975
 20
-614.8241186452874
 10
984.721287528097
 20
-614.8724453222826
 10
984.7798631660955
 20
-614.9241479672932
 10
984.834981531098
 20
-614.9792673692867
 10
984.8866829700968
 20
-615.0378438402845
 10
984.9350083100946
 20
-615.0999184402904
 10
984.980000294096
 20
-615.1655357552957
 10
985.0217038670967
 20
-615.2347467882869
 10
985.0601653400977
 20
-615.3076113352876
 10
985.0954318250972
 20
-615.3842017582942
 10
985.1275505110974
 20
-615.4646082352851
 10
985.1565664230973
 20
-615.5489421092866
 10
985.1825198900957
 20
-615.6373383512987
 10
985.205444940097
 20
-615.7299611552883
 10
985.2253670690993
 20
-615.8270091952878
 10
985.2423004390953
 20
-615.9287191532862
 10
985.2562454030962
 20
-616.0353707722975
 10
985.2671859250952
 20
-616.1472924912962
 10
985.2750868740972
 20
-616.2648685432944
 10
985.2798909190974
 20
-616.3885446482894
 10
985.281515382098
 20
-616.5188394492875
  0
LWPOLYLINE
  5
6823
330
254
100
AcDbEntity
  8
ALL_ASSEM_MEMBER
  6
Continuous
 62
     7
100
AcDbPolyline
 90
       36
 70
     0
 43
0.0
 10
977.1165495720984
 20
-608.3538736402991
 10
977.2468445020974
 20
-608.355498105288
 10
977.3705211940963
 20
-608.360302185291
 10
977.4880984540983
 20
-608.3682032542932
 10
977.6000216750967
 20
-608.3791440082936
 10
977.7066760830972
 20
-608.3930895042945
 10
977.808388638096
 20
-608.4100235872907
 10
977.905438476097
 20
-608.4299464792861
 10
977.9980622510961
 20
-608.4528722592953
 10
978.0864610920966
 20
-608.4788271112925
 10
978.1707968760969
 20
-608.5078444822869
 10
978.2512046700979
 20
-608.5399646672889
 10
978.3277960100972
 20
-608.5752327212834
 10
978.400661034097
 20
-608.6136957632848
 10
978.4698721580976
 20
-608.655400875294
 10
978.5354891590982
 20
-608.7003942882953
 10
978.5975631710975
 20
-608.7487209652904
 10
978.6561388090983
 20
-608.8004236102864
 10
978.7112571740965
 20
-608.8555430122944
 10
978.7629586130972
 20
-608.9141194832849
 10
978.8112839530972
 20
-608.976194084295
 10
978.8562759370984
 20
-609.0418113982893
 10
978.8979795100972
 20
-609.1110224312948
 10
978.9364409830962
 20
-609.1838869782955
 10
978.9717074680962
 20
-609.2604774012875
 10
979.0038261540981
 20
-609.3408838782927
 10
979.0328420660976
 20
-609.4252177522872
 10
979.0587955330979
 20
-609.5136139942917
 10
979.0817205830958
 20
-609.6062367982963
 10
979.1016427120979
 20
-609.7032848382808
 10
979.1185760820975
 20
-609.804994796294
 10
979.1325210470972
 20
-609.9116464152906
 10
979.1434615680977
 20
-610.0235681342898
 10
979.151362517096
 20
-610.1411441862879
 10
979.1561665630963
 20
-610.26482029129
 10
979.1577910250966
 20
-610.3951150922807
  0
LINE
  5
6824
330
254
100
AcDbEntity
  8
0
  6
Continuous
 62
     7
100
AcDbLine
 10
971.6332963560969
 20
-577.4342367442882
 30
0.0
 11
966.4499102480972
 21
-577.1283384112908
 31
0.0
  0
LINE
  5
6827
330
254
100
AcDbEntity
  8
0
  6
Continuous
 62
     7
100
AcDbLine
 10
953.4075369280968
 20
-617.5728962202851
 30
0.0
 11
955.6208386340953
 21
-622.7361338052872
 31
0.0
  0
LWPOLYLINE
  5
6830
330
254
100
AcDbEntity
  8
ALL_ASSEM_MEMBER
  6
Continuous
 62
     7
100
AcDbPolyline
 90
       36
 70
     0
 43
0.0
 10
977.0364706810983
 20
-612.5164354362864
 10
977.1040548440982
 20
-612.712690063287
 10
977.1730993100977
 20
-612.9006071412882
 10
977.243739544098
 20
-613.0809235652927
 10
977.3161122850964
 20
-613.2542787752903
 10
977.3903577330971
 20
-613.4212331342937
 10
977.466615135096
 20
-613.5822690082862
 10
977.5450243920973
 20
-613.7378052102872
 10
977.6257249500982
 20
-613.8882037642911
 10
977.7088566480966
 20
-614.0337794502852
 10
977.7945505960967
 20
-614.174791812286
 10
977.8829347710964
 20
-614.3114635962924
 10
977.9741325220973
 20
-614.4439846332828
 10
978.0682595960977
 20
-614.5725136892873
 10
978.1654228270966
 20
-614.6971829322943
 10
978.2657214470967
 20
-614.8181051392897
 10
978.3692484690966
 20
-614.9353794972852
 10
978.476090254097
 20
-615.0490942752882
 10
978.5863285410963
 20
-615.1593315242867
 10
978.7000439660973
 20
-615.2661719182873
 10
978.8173185370983
 20
-615.3696972282855
 10
978.9382405000985
 20
-615.4699938612907
 10
979.0629088370955
 20
-615.5671547372917
 10
979.1914363930975
 20
-615.6612792202945
 10
979.323955271097
 20
-615.7524741602833
 10
979.4606243290987
 20
-615.8408554272905
 10
979.6016330970966
 20
-615.9265462322951
 10
979.7472041930962
 20
-616.0096745532942
 10
979.8976009250987
 20
-616.0903735312899
 10
980.053134048098
 20
-616.1687807442872
 10
980.214165671096
 20
-616.2450357792918
 10
980.3811155810947
 20
-616.3192790342877
 10
980.5544684210984
 20
-616.3916506772807
 10
980.7347829740979
 20
-616.4622901262921
 10
980.9226991540967
 20
-616.5313342472876
 10
981.1189535860979
 20
-616.5989183402929
  0
LWPOLYLINE
  5
6831
330
254
100
AcDbEntity
  8
ALL_ASSEM_MEMBER
  6
Continuous
 62
     7
100
AcDbPolyline
 90
       36
 70
     0
 43
0.0
 10
990.2406310630963
 20
-607.4772408632857
 10
990.1730469430972
 20
-607.2809863562873
 10
990.1040025250956
 20
-607.0930693972846
 10
990.0333623470984
 20
-606.9127530962872
 10
989.9609896410952
 20
-606.7393979462945
 10
989.886744246098
 20
-606.5724436762907
 10
989.8104868560954
 20
-606.4114077952912
 10
989.7320775840983
 20
-606.2558715332929
 10
989.6513770190963
 20
-606.1054729412867
 10
989.5682452790977
 20
-605.9598971582894
 10
989.4825513140972
 20
-605.8188847512941
 10
989.3941671220967
 20
-605.6822129272917
 10
989.3029693580982
 20
-605.5496918562935
 10
989.2088422600975
 20
-605.4211627582922
 10
989.1116790040963
 20
-605.2964934742854
 10
989.0113803560967
 20
-605.1755712282906
 10
988.907853302097
 20
-605.0582968322927
 10
988.8010114860975
 20
-604.9445820192853
 10
988.6907731660963
 20
-604.8343447382872
 10
988.5770577060961
 20
-604.7275043152842
 10
988.4597830990974
 20
-604.6239789772812
 10
988.3388611000977
 20
-604.523682321284
 10
988.214192724096
 20
-604.4265214232876
 10
988.0856651320979
 20
-604.3323969232882
 10
987.9531462150957
 20
-604.2412019662881
 10
987.816477124096
 20
-604.152820689284
 10
987.6754683220973
 20
-604.0671298742894
 10
987.5298972030982
 20
-603.9840015532831
 10
987.3795004470959
 20
-603.9033025742831
 10
987.2239673060963
 20
-603.8248953642837
 10
987.062935658098
 20
-603.7486403292937
 10
986.8959857650956
 20
-603.6743970922838
 10
986.7226329850968
 20
-603.6020254852851
 10
986.5423185380974
 20
-603.5313860842875
 10
986.3544024720964
 20
-603.4623420102946
 10
986.1581481580984
 20
-603.3947579582893
  0
LINE
  5
6832
330
254
100
AcDbEntity
  8
0
  6
Continuous
 62
     7
100
AcDbLine
 10
1020.475865854096
 20
-654.7614759312859
 30
0.0
 11
1023.143667692097
 21
-653.7250069422882
 31
0.0
  0
LINE
  5
6833
330
254
100
AcDbEntity
  8
0
  6
Continuous
 62
     7
100
AcDbLine
 10
1008.986256529097
 20
-659.7299556392904
 30
0.0
 11
1012.733273929096
 21
-658.4656390752939
 31
0.0
  0
LINE
  5
6834
330
254
100
AcDbEntity
  8
0
  6
Continuous
 62
     7
100
AcDbLine
 10
966.4499102480972
 20
-577.1283384112908
 30
0.0
 11
961.4451250180961
 21
-577.844985873286
 31
0.0
  0
LINE
  5
6838
330
254
100
AcDbEntity
  8
0
  6
Continuous
 62
     7
100
AcDbLine
 10
1026.402895333097
 20
-645.9293300752837
 30
0.0
 11
1025.444345562097
 21
-642.9613366252892
 31
0.0
  0
LINE
  5
683A
330
254
100
AcDbEntity
  8
0
  6
Continuous
 62
     7
100
AcDbLine
 10
1012.733273929096
 20
-658.4656390752939
 30
0.0
 11
1016.423390467097
 21
-656.6525130412851
 31
0.0
  0
LINE
  5
683B
330
254
100
AcDbEntity
  8
0
  6
Continuous
 62
     7
100
AcDbLine
 10
1023.143667692097
 20
-653.7250069422882
 30
0.0
 11
1025.511246226099
 21
-652.5696686092929
 31
0.0
  0
LINE
  5
683C
330
254
100
AcDbEntity
  8
0
  6
Continuous
 62
     7
100
AcDbLine
 10
1016.423390467097
 20
-656.6525130412851
 30
0.0
 11
1020.475865854096
 21
-654.7614759312859
 31
0.0
  0
LINE
  5
6840
330
254
100
AcDbEntity
  8
0
  6
Continuous
 62
     7
100
AcDbLine
 10
961.4451250180961
 20
-577.844985873286
 30
0.0
 11
957.4382795610986
 21
-579.9237503322879
 31
0.0
  0
LINE
  5
6841
330
254
100
AcDbEntity
  8
0
  6
Continuous
 62
     7
100
AcDbLine
 10
1025.511246226099
 20
-652.5696686092929
 30
0.0
 11
1026.996995470097
 21
-651.0351161502844
 31
0.0
  0
LINE
  5
6843
330
254
100
AcDbEntity
  8
ALL_ASSEM_MEMBER
  6
Continuous
 62
     7
100
AcDbLine
 10
1024.493863649095
 20
-649.084383973292
 30
0.0
 11
1022.372543305097
 21
-651.2057043172831
 31
0.0
  0
LINE
  5
6844
330
254
100
AcDbEntity
  8
ALL_ASSEM_MEMBER
  6
Continuous
 62
     7
100
AcDbLine
 10
1024.524013108098
 20
-649.054234513293
 30
0.0
 11
1026.615183992097
 21
-646.9630636292862
 31
0.0
  0
LINE
  5
6845
330
254
100
AcDbEntity
  8
ALL_ASSEM_MEMBER
  6
Continuous
 62
     7
100
AcDbLine
 10
1002.200103878095
 20
-626.7906242022877
 30
0.0
 11
1009.978278190098
 21
-619.0124498912851
 31
0.0
  0
LINE
  5
6846
330
254
100
AcDbEntity
  8
ALL_ASSEM_MEMBER
  6
Continuous
 62
     7
100
AcDbLine
 10
993.7148225040967
 20
-618.3053428282951
 30
0.0
 11
1001.492996816098
 21
-610.5271685162882
 31
0.0
  0
LINE
  5
6847
330
254
100
AcDbEntity
  8
ALL_ASSEM_MEMBER
  6
Continuous
 62
     7
100
AcDbLine
 10
991.5935021600967
 20
-616.1840224852936
 30
0.0
 11
992.6541623320975
 21
-615.1233623132943
 31
0.0
  0
LINE
  5
6848
330
254
100
AcDbEntity
  8
ALL_ASSEM_MEMBER
  6
Continuous
 62
     7
100
AcDbLine
 10
986.6437546920977
 20
-615.4769157032865
 30
0.0
 11
985.5830945200963
 21
-616.5375758752857
 31
0.0
  0
LINE
  5
6849
330
254
100
AcDbEntity
  8
ALL_ASSEM_MEMBER
  6
Continuous
 62
     7
100
AcDbLine
 10
985.281515382098
 20
-616.5188394492875
 30
0.0
 11
983.1601950380976
 21
-618.640159792289
 31
0.0
  0
LINE
  5
684A
330
254
100
AcDbEntity
  8
ALL_ASSEM_MEMBER
  6
Continuous
 62
     7
100
AcDbLine
 10
990.1605521720979
 20
-611.6398026592873
 30
0.0
 11
992.2818725150978
 21
-609.5184823152817
 31
0.0
  0
LINE
  5
684C
330
254
100
AcDbEntity
  8
ALL_ASSEM_MEMBER
  6
Continuous
 62
     7
100
AcDbLine
 10
989.4721818170967
 20
-611.9413817972968
 30
0.0
 11
989.967156564097
 21
-611.4464070512918
 31
0.0
  0
LINE
  5
684E
330
254
100
AcDbEntity
  8
ALL_ASSEM_MEMBER
  6
Continuous
 62
     7
100
AcDbLine
 10
987.8458362200984
 20
-610.3150362012898
 30
0.0
 11
988.3408109670966
 21
-609.8200614542878
 31
0.0
  0
LINE
  5
684F
330
254
100
AcDbEntity
  8
ALL_ASSEM_MEMBER
  6
Continuous
 62
     7
100
AcDbLine
 10
988.1993896110966
 20
-609.6786400982896
 30
0.0
 11
987.7044148640983
 21
-610.1736148442945
 31
0.0
  0
LINE
  5
6850
330
254
100
AcDbEntity
  8
ALL_ASSEM_MEMBER
  6
Continuous
 62
     7
100
AcDbLine
 10
986.6437546920977
 20
-611.2342750162937
 30
0.0
 11
984.0274596020977
 21
-613.850570107294
 31
0.0
  0
LINE
  5
6851
330
254
100
AcDbEntity
  8
ALL_ASSEM_MEMBER
  6
Continuous
 62
     7
100
AcDbLine
 10
980.4919256960967
 20
-617.386104013291
 30
0.0
 11
970.875273472097
 21
-627.0027562372856
 31
0.0
  0
LINE
  5
6852
330
254
100
AcDbEntity
  8
ALL_ASSEM_MEMBER
  6
Continuous
 62
     7
100
AcDbLine
 10
983.240273929096
 20
-614.4775979972914
 30
0.0
 11
981.1189535860979
 21
-616.5989183402929
 31
0.0
  0
LINE
  5
6853
330
254
100
AcDbEntity
  8
ALL_ASSEM_MEMBER
  6
Continuous
 62
     7
100
AcDbLine
 10
988.119310719098
 20
-609.5985612062944
 30
0.0
 11
990.2406310630963
 21
-607.4772408632857
 31
0.0
  0
LINE
  5
6854
330
254
100
AcDbEntity
  8
ALL_ASSEM_MEMBER
  6
Continuous
 62
     7
100
AcDbLine
 10
979.1577910250966
 20
-610.3951150922807
 30
0.0
 11
977.0364706810983
 21
-612.5164354362864
 31
0.0
  0
LINE
  5
6855
330
254
100
AcDbEntity
  8
ALL_ASSEM_MEMBER
  6
Continuous
 62
     7
100
AcDbLine
 10
984.0368278150968
 20
-605.5160783022952
 30
0.0
 11
986.1581481580984
 21
-603.3947579582893
 31
0.0
  0
LINE
  5
6856
330
254
100
AcDbEntity
  8
ALL_ASSEM_MEMBER
  6
Continuous
 62
     7
100
AcDbLine
 10
983.9567489240986
 20
-605.4359994112895
 30
0.0
 11
983.4617741770983
 21
-605.9309741572873
 31
0.0
  0
LINE
  5
6857
330
254
100
AcDbEntity
  8
ALL_ASSEM_MEMBER
  6
Continuous
 62
     7
100
AcDbLine
 10
982.4011140050975
 20
-606.9916343292939
 30
0.0
 11
979.7848189150975
 21
-609.6079294202866
 31
0.0
  0
LINE
  5
6858
330
254
100
AcDbEntity
  8
ALL_ASSEM_MEMBER
  6
Continuous
 62
     7
100
AcDbLine
 10
976.2492850090973
 20
-613.1434633252943
 30
0.0
 11
966.6326327850951
 21
-622.7601155502857
 31
0.0
  0
LINE
  5
685A
330
254
100
AcDbEntity
  8
ALL_ASSEM_MEMBER
  6
Continuous
 62
     7
100
AcDbLine
 10
983.3203528210983
 20
-605.7895528012891
 30
0.0
 11
983.8153275670959
 21
-605.2945780542873
 31
0.0
  0
LINE
  5
685D
330
254
100
AcDbEntity
  8
ALL_ASSEM_MEMBER
  6
Continuous
 62
     7
100
AcDbLine
 10
981.694007224098
 20
-604.1632072042853
 30
0.0
 11
982.1889819710982
 21
-603.6682324582947
 31
0.0
  0
LINE
  5
685E
330
254
100
AcDbEntity
  8
ALL_ASSEM_MEMBER
  6
Continuous
 62
     7
100
AcDbLine
 10
977.1165495720984
 20
-608.3538736402991
 30
0.0
 11
974.9952292290966
 21
-610.4751939832936
 31
0.0
  0
LINE
  5
685F
330
254
100
AcDbEntity
  8
ALL_ASSEM_MEMBER
  6
Continuous
 62
     7
100
AcDbLine
 10
981.9955863630973
 20
-603.4748368492877
 30
0.0
 11
984.1169067060953
 21
-601.3535165062934
 31
0.0
  0
LINE
  5
6860
330
254
100
AcDbEntity
  8
ALL_ASSEM_MEMBER
  6
Continuous
 62
     7
100
AcDbLine
 10
978.1584733180975
 20
-606.9916343292939
 30
0.0
 11
977.0978131460982
 21
-608.0522945012931
 31
0.0
  0
LINE
  5
6861
330
254
100
AcDbEntity
  8
ALL_ASSEM_MEMBER
  6
Continuous
 62
     7
100
AcDbLine
 10
980.2797936610973
 20
-604.8703139862922
 30
0.0
 11
981.3404538330961
 21
-603.8096538142931
 31
0.0
  0
LINE
  5
6866
330
254
100
AcDbEntity
  8
0
  6
Continuous
 62
     7
100
AcDbLine
 10
957.4382795610986
 20
-579.9237503322879
 30
0.0
 11
954.6440256140963
 21
-584.3312177032935
 31
0.0
  0
LINE
  5
686A
330
254
100
AcDbEntity
  8
0
  6
Continuous
 62
     7
100
AcDbLine
 10
1026.452877814096
 20
-629.1274432552896
 30
0.0
 11
1026.543593541097
 21
-628.6088397402859
 31
0.0
  0
LINE
  5
686B
330
254
100
AcDbEntity
  8
0
  6
Continuous
 62
     7
100
AcDbLine
 10
1025.050930948097
 20
-635.8487117662884
 30
0.0
 11
1026.452877814096
 21
-629.1274432552896
 31
0.0
  0
LINE
  5
686E
330
254
100
AcDbEntity
  8
0
  6
Continuous
 62
     7
100
AcDbLine
 10
1026.996995470097
 20
-651.0351161502844
 30
0.0
 11
1027.182969489095
 21
-648.718518680282
 31
0.0
  0
LINE
  5
686F
330
254
100
AcDbEntity
  8
0
  6
Continuous
 62
     7
100
AcDbLine
 10
954.6440256140963
 20
-584.3312177032935
 30
0.0
 11
953.3821786020967
 21
-590.1378500942812
 31
0.0
  0
LINE
  5
6870
330
254
100
AcDbEntity
  8
0
  6
Continuous
 62
     7
100
AcDbLine
 10
1025.444345562097
 20
-642.9613366252892
 30
0.0
 11
1025.050930948097
 21
-635.8487117662884
 31
0.0
  0
LWPOLYLINE
  5
6871
330
254
100
AcDbEntity
  8
ALL_ASSEM_MEMBER
  6
Continuous
 62
     7
100
AcDbPolyline
 90
       36
 70
     0
 43
0.0
 10
992.2818725150978
 20
-609.5184823152817
 10
992.2802480520972
 20
-609.3881874652875
 10
992.2754439780987
 20
-609.2645108502916
 10
992.2675429200976
 20
-609.146933669283
 10
992.2566021780951
 20
-609.035010483291
 10
992.2426566990964
 20
-608.9283561292837
 10
992.2257226270962
 20
-608.8266435662886
 10
992.2057997390953
 20
-608.7295936882878
 10
992.1828739630987
 20
-608.6369698852872
 10
992.1569191030964
 20
-608.5485709832869
 10
992.127901732098
 20
-608.4642351682928
 10
992.0957815440983
 20
-608.3838273492951
 10
992.0605134880977
 20
-608.3072359862931
 10
992.0220504390966
 20
-608.2343709372949
 10
991.980345318096
 20
-608.1651597882887
 10
991.9353518940974
 20
-608.0995427662932
 10
991.8870252030981
 20
-608.0374687322914
 10
991.8353225430988
 20
-607.9788930772852
 10
991.7802031240958
 20
-607.9237746962903
 10
991.7216266350973
 20
-607.8720732432851
 10
991.6595520130963
 20
-607.8237478922824
 10
991.5939346780984
 20
-607.7787559002903
 10
991.5247236210967
 20
-607.7370523202992
 10
991.451859052097
 20
-607.698590843291
 10
991.3752686040978
 20
-607.6633243552865
 10
991.2948621040964
 20
-607.6312056702886
 10
991.2105282070974
 20
-607.6021897592877
 10
991.1221319480977
 20
-607.5762362972897
 10
991.0295091260982
 20
-607.5533112522903
 10
990.9324610730966
 20
-607.5333891302874
 10
990.8307510950967
 20
-607.5164557662868
 10
990.7240994850985
 20
-607.5025108122868
 10
990.612177801097
 20
-607.4915703012962
 10
990.4946018160975
 20
-607.483669362286
 10
990.3709257860976
 20
-607.4788653232904
 10
990.2406310630963
 20
-607.4772408632857
  0
LWPOLYLINE
  5
6872
330
254
100
AcDbEntity
  8
ALL_ASSEM_MEMBER
  6
Continuous
 62
     7
100
AcDbPolyline
 90
       36
 70
     0
 43
0.0
 10
986.1581481580984
 20
-603.3947579582893
 10
986.1565236950978
 20
-603.2644631082953
 10
986.1517196210975
 20
-603.1407864932921
 10
986.1438185630984
 20
-603.0232093122909
 10
986.1328778210975
 20
-602.9112861262842
 10
986.118932342099
 20
-602.8046317722842
 10
986.1019982700966
 20
-602.7029192092891
 10
986.0820753820975
 20
-602.6058693312884
 10
986.0591496060974
 20
-602.5132455282951
 10
986.0331947460986
 20
-602.4248466262875
 10
986.0041773750968
 20
-602.3405108112861
 10
985.9720571870973
 20
-602.2601029922957
 10
985.9367891310981
 20
-602.1835116302904
 10
985.898326083096
 20
-602.1106465802883
 10
985.8566209610987
 20
-602.0414354312891
 10
985.8116275370962
 20
-601.9758184092864
 10
985.7633008460982
 20
-601.9137443752848
 10
985.7115981860976
 20
-601.855168720293
 10
985.656478767098
 20
-601.8000503392982
 10
985.5979022780962
 20
-601.748348886293
 10
985.5358276560949
 20
-601.7000235352903
 10
985.470210321097
 20
-601.6550315432837
 10
985.4009992640973
 20
-601.6133279632928
 10
985.3281346950977
 20
-601.5748664862917
 10
985.2515442470979
 20
-601.5395999982942
 10
985.1711377480974
 20
-601.5074813132891
 10
985.0868038500962
 20
-601.478465402281
 10
984.9984075910983
 20
-601.4525119402974
 10
984.905784769097
 20
-601.4295868962874
 10
984.8087367160955
 20
-601.409664773288
 10
984.707026738099
 20
-601.3927314092875
 10
984.6003751280973
 20
-601.3787864552946
 10
984.4884534440974
 20
-601.3678459442893
 10
984.3708774590963
 20
-601.3599450052939
 10
984.2472014290963
 20
-601.355140966291
 10
984.1169067060953
 20
-601.3535165062934
  0
LWPOLYLINE
  5
6873
330
254
100
AcDbEntity
  8
ALL_ASSEM_MEMBER
  6
Continuous
 62
     7
100
AcDbPolyline
 90
       36
 70
     0
 43
0.0
 10
981.1189535860979
 20
-616.5989183402929
 10
981.1205780510976
 20
-616.7292132702864
 10
981.1253821310968
 20
-616.8528899622911
 10
981.1332832000992
 20
-616.9704672222874
 10
981.1442239540997
 20
-617.0823904432912
 10
981.1581694500967
 20
-617.1890448512861
 10
981.1751035330967
 20
-617.2907574062851
 10
981.1950264250977
 20
-617.3878072442898
 10
981.2179522050961
 20
-617.4804310192926
 10
981.2439070570986
 20
-617.5688298602912
 10
981.2729244280966
 20
-617.6531656442971
 10
981.3050446130969
 20
-617.7335734382872
 10
981.3403126670966
 20
-617.81016477829
 10
981.3787757090963
 20
-617.883029801284
 10
981.4204808210966
 20
-617.952240926294
 10
981.4654742340975
 20
-618.0178579262943
 10
981.5138009120968
 20
-618.0799319392904
 10
981.5655035560981
 20
-618.1385075772928
 10
981.6206229580968
 20
-618.193625942295
 10
981.6791994290966
 20
-618.2453273812866
 10
981.7412740300977
 20
-618.2936527212883
 10
981.8068913440953
 20
-618.338644704287
 10
981.8761023770973
 20
-618.3803482772933
 10
981.9489669240979
 20
-618.4188097512892
 10
982.0255573470973
 20
-618.454076236289
 10
982.1059638240988
 20
-618.4861949212939
 10
982.1902976980966
 20
-618.5152108342886
 10
982.2786939400964
 20
-618.5411643012926
 10
982.3713167450971
 20
-618.5640893512902
 10
982.4683647840959
 20
-618.5840114802853
 10
982.5700747430968
 20
-618.6009448502886
 10
982.6767263610967
 20
-618.614889814286
 10
982.7886480800955
 20
-618.6258303362923
 10
982.9062241320976
 20
-618.6337312852852
 10
983.0299002370962
 20
-618.6385353302908
 10
983.1601950380976
 20
-618.640159792289
  0
LWPOLYLINE
  5
6874
330
254
100
AcDbEntity
  8
ALL_ASSEM_MEMBER
  6
Continuous
 62
     7
100
AcDbPolyline
 90
       36
 70
     0
 43
0.0
 10
974.9952292290966
 20
-610.4751939832936
 10
974.9968536940983
 20
-610.6054889132942
 10
975.0016577740975
 20
-610.7291656052987
 10
975.0095588430981
 20
-610.8467428652808
 10
975.0204995970965
 20
-610.9586660862993
 10
975.0344450930974
 20
-611.0653204942869
 10
975.0513791760972
 20
-611.167033049293
 10
975.0713020680963
 20
-611.2640828872903
 10
975.0942278480984
 20
-611.3567066622858
 10
975.1201827000972
 20
-611.4451055032991
 10
975.1492000710973
 20
-611.5294412872903
 10
975.1813202560994
 20
-611.6098490812877
 10
975.2165883100976
 20
-611.6864404212832
 10
975.2550513520986
 20
-611.7593054442917
 10
975.2967564640971
 20
-611.8285165692944
 10
975.3417498770964
 20
-611.8941335692946
 10
975.3900765550977
 20
-611.9562075822909
 10
975.4417791990967
 20
-612.0147832202932
 10
975.4968986010975
 20
-612.0699015852882
 10
975.5554750720987
 20
-612.1216030242942
 10
975.617549673096
 20
-612.1699283642888
 10
975.6831669870976
 20
-612.2149203482845
 10
975.7523780200976
 20
-612.2566239202865
 10
975.8252425670967
 20
-612.2950853942898
 10
975.9018329900978
 20
-612.3303518792894
 10
975.9822394670978
 20
-612.3624705642874
 10
976.0665733410974
 20
-612.391486477289
 10
976.1549695830948
 20
-612.4174399442859
 10
976.2475923880959
 20
-612.4403649942838
 10
976.3446404270984
 20
-612.4602871232933
 10
976.4463503860977
 20
-612.4772204932892
 10
976.5530020040973
 20
-612.4911654572937
 10
976.664923723098
 20
-612.5021059792929
 10
976.7824997750963
 20
-612.510006928293
 10
976.9061758800985
 20
-612.5148109732986
 10
977.0364706810983
 20
-612.5164354362864
  0
LINE
  5
6875
330
254
100
AcDbEntity
  8
ALL_ASSEM_MEMBER
  6
Continuous
 62
     7
100
AcDbLine
 10
992.2818725150978
 20
-608.1042687532904
 30
0.0
 11
992.2818725150978
 21
-609.5184823152817
 31
0.0
  0
LINE
  5
6876
330
254
100
AcDbEntity
  8
ALL_ASSEM_MEMBER
  6
Continuous
 62
     7
100
AcDbLine
 10
985.281515382098
 20
-616.5188394492875
 30
0.0
 11
985.281515382098
 21
-615.1046258872816
 31
0.0
  0
LINE
  5
6877
330
254
100
AcDbEntity
  8
ALL_ASSEM_MEMBER
  6
Continuous
 62
     7
100
AcDbLine
 10
974.9952292290966
 20
-611.889407546289
 30
0.0
 11
974.9952292290966
 21
-610.4751939832936
 31
0.0
  0
LINE
  5
6878
330
254
100
AcDbEntity
  8
ALL_ASSEM_MEMBER
  6
Continuous
 62
     7
100
AcDbLine
 10
966.6326327850951
 20
-622.7601155502857
 30
0.0
 11
966.6326327850951
 21
-623.4672223312887
 31
0.0
  0
LINE
  5
6879
330
254
100
AcDbEntity
  8
0
  6
Continuous
 62
     7
100
AcDbLine
 10
952.2331058910974
 20
-601.8772193492917
 30
0.0
 11
951.8954408790962
 21
-607.0977478212958
 31
0.0
  0
LINE
  5
687A
330
254
100
AcDbEntity
  8
0
  6
Continuous
 62
     7
100
AcDbLine
 10
953.3821786020967
 20
-590.1378500942812
 30
0.0
 11
952.7803298340953
 21
-596.3818393642873
 31
0.0
  0
LINE
  5
687B
330
254
100
AcDbEntity
  8
0
  6
Continuous
 62
     7
100
AcDbLine
 10
952.7803298340953
 20
-596.3818393642873
 30
0.0
 11
952.2331058910974
 21
-601.8772193492917
 31
0.0
  0
LINE
  5
687C
330
254
100
AcDbEntity
  8
0
  6
Continuous
 62
     7
100
AcDbLine
 10
951.8954408790962
 20
-607.0977478212958
 30
0.0
 11
952.1592698710961
 21
-612.2188684332873
 31
0.0
  0
LINE
  5
687D
330
254
100
AcDbEntity
  8
0
  6
Continuous
 62
     7
100
AcDbLine
 10
1027.182969489095
 20
-648.718518680282
 30
0.0
 11
1026.402895333097
 21
-645.9293300752837
 31
0.0
  0
LINE
  5
687E
330
254
100
AcDbEntity
  8
0
  6
Continuous
 62
     7
100
AcDbLine
 10
952.1592698710961
 20
-612.2188684332873
 30
0.0
 11
953.4075369280968
 21
-617.5728962202851
 31
0.0
  0
LINE
  5
6894
330
254
100
AcDbEntity
  8
ALL_ASSEM_MEMBER
  6
Continuous
 62
     7
100
AcDbLine
 10
1869.820124394095
 20
-565.2723342403078
 30
0.0
 11
1784.967310652111
 21
-650.1251479822869
 31
0.0
  0
LINE
  5
6895
330
254
100
AcDbEntity
  8
ALL_ASSEM_MEMBER
  6
Continuous
 62
     7
100
AcDbLine
 10
1784.967310652111
 20
-650.1251479822869
 30
0.0
 11
1721.327700345022
 21
-586.4855376752037
 31
0.0
  0
LWPOLYLINE
  5
689E
330
254
100
AcDbEntity
  8
0
100
AcDbPolyline
 90
        8
 70
     1
 43
0.0
 10
611.4570299150972
 20
-346.3562081051302
 10
1006.862875313258
 20
-741.7620535032908
 10
1566.051184516935
 20
-741.7620535032908
 10
1961.457029915097
 20
-346.3562081051307
 10
1961.457029915097
 20
212.8321010985475
 10
1566.051184516936
 20
608.2379464967084
 10
1006.862875313258
 20
608.2379464967084
 10
611.457029915097
 20
212.8321010985473
  0
LWPOLYLINE
  5
68A0
330
254
100
AcDbEntity
  8
0
100
AcDbPolyline
 90
        8
 70
     1
 43
0.0
 10
701.4570299150972
 20
-309.0769874915516
 10
1044.142095926836
 20
-651.7620535032906
 10
1528.771963903357
 20
-651.7620535032911
 10
1871.457029915097
 20
-309.0769874915523
 10
1871.457029915097
 20
175.5528804849691
 10
1528.771963903358
 20
518.2379464967088
 10
1044.142095926836
 20
518.2379464967088
 10
701.4570299150972
 20
175.5528804849693
  0
LINE
  5
68A1
330
254
100
AcDbEntity
  8
0
100
AcDbLine
 10
860.719359342097
 20
801.9673894956715
 30
0.0
 11
868.7193593420968
 21
801.9673894956715
 31
0.0
  0
LINE
  5
68A2
330
254
100
AcDbEntity
  8
0
100
AcDbLine
 10
924.925096625097
 20
801.9673894956715
 30
0.0
 11
932.925096625097
 21
801.9673894956715
 31
0.0
  0
LINE
  5
68A3
330
254
100
AcDbEntity
  8
0
100
AcDbLine
 10
1043.561829716597
 20
801.9673894956715
 30
0.0
 11
1051.561829716597
 21
801.9673894956715
 31
0.0
  0
LINE
  5
68A4
330
254
100
AcDbEntity
  8
0
100
AcDbLine
 10
1198.568191448097
 20
801.9673894956715
 30
0.0
 11
1206.568191448097
 21
801.9673894956715
 31
0.0
  0
LINE
  5
68A5
330
254
100
AcDbEntity
  8
0
100
AcDbLine
 10
1366.345868382097
 20
801.9673894956715
 30
0.0
 11
1374.345868382097
 21
801.9673894956715
 31
0.0
  0
LINE
  5
68A6
330
254
100
AcDbEntity
  8
0
100
AcDbLine
 10
1521.352230113597
 20
801.9673894956715
 30
0.0
 11
1529.352230113597
 21
801.9673894956715
 31
0.0
  0
LINE
  5
68A7
330
254
100
AcDbEntity
  8
0
100
AcDbLine
 10
1639.988963205097
 20
801.9673894956715
 30
0.0
 11
1647.988963205097
 21
801.9673894956715
 31
0.0
  0
LINE
  5
68A8
330
254
100
AcDbEntity
  8
0
100
AcDbLine
 10
1704.194700488597
 20
801.9673894956715
 30
0.0
 11
1712.194700488597
 21
801.9673894956715
 31
0.0
  0
LINE
  5
68B3
330
254
100
AcDbEntity
  8
ALL_ASSEM_MEMBER
  6
Continuous
 62
     7
100
AcDbLine
 10
1961.457029915097
 20
1734.967389495002
 30
0.0
 11
1871.457029915097
 21
1884.967389495671
 31
0.0
  0
LINE
  5
68B4
330
254
100
AcDbEntity
  8
ALL_ASSEM_MEMBER
  6
Continuous
 62
     7
100
AcDbLine
 10
1887.957029915097
 20
869.967389496586
 30
0.0
 11
1961.457029915097
 21
1039.967389496525
 31
0.0
  0
LINE
  5
68B5
330
254
100
AcDbEntity
  8
ALL_ASSEM_MEMBER
  6
Continuous
 62
     7
100
AcDbLine
 10
1961.457029915097
 20
1039.967389496525
 30
0.0
 11
1961.457029915097
 21
1734.967389495002
 31
0.0
  0
LINE
  5
68B6
330
254
100
AcDbEntity
  8
ALL_ASSEM_MEMBER
  6
Continuous
 62
     7
100
AcDbLine
 10
1887.957029915097
 20
819.9673894956712
 30
0.0
 11
1887.957029915097
 21
869.967389496586
 31
0.0
  0
LINE
  5
68B7
330
254
100
AcDbEntity
  8
ALL_ASSEM_MEMBER
  6
Continuous
 62
     7
100
AcDbLine
 10
701.4570299150967
 20
1884.967389495671
 30
0.0
 11
1871.457029915097
 21
1884.967389495671
 31
0.0
  0
LINE
  5
68B8
330
254
100
AcDbEntity
  8
0
100
AcDbLine
 10
611.4570299150972
 20
1734.967389495002
 30
0.0
 11
1961.457029915097
 21
1734.967389495002
 31
0.0
  0
LINE
  5
68B9
330
254
100
AcDbEntity
  8
0
100
AcDbLine
 10
611.4570299150969
 20
1039.967389496525
 30
0.0
 11
1961.457029915097
 21
1039.967389496524
 31
0.0
  0
LINE
  5
68BA
330
254
100
AcDbEntity
  8
0
100
AcDbLine
 10
684.9570299150972
 20
869.967389496586
 30
0.0
 11
888.8456679263597
 21
869.967389496586
 31
0.0
  0
LINE
  5
68BD
330
254
100
AcDbEntity
  8
0
100
AcDbLine
 10
1721.327700345022
 20
1177.190125936538
 30
0.0
 11
1869.820124394198
 21
1177.190125936538
 31
0.0
  0
LINE
  5
68BE
330
254
100
AcDbEntity
  8
0
100
AcDbLine
 10
1721.327700345022
 20
1058.967389495671
 30
0.0
 11
1869.820124394198
 21
1058.967389495671
 31
0.0
  0
LINE
  5
68BF
330
254
100
AcDbEntity
  8
0
100
AcDbLine
 10
1721.327700345022
 20
1058.967389495671
 30
0.0
 11
1721.327700345022
 21
1177.190125936538
 31
0.0
  0
LINE
  5
68C0
330
254
100
AcDbEntity
  8
0
100
AcDbLine
 10
1784.967310651813
 20
1058.967389495671
 30
0.0
 11
1784.967310651813
 21
1177.190125936538
 31
0.0
  0
LINE
  5
68C1
330
254
100
AcDbEntity
  8
0
100
AcDbLine
 10
1774.967310651813
 20
1058.967389495671
 30
0.0
 11
1774.967310651813
 21
1177.190125936538
 31
0.0
  0
LINE
  5
68C2
330
254
100
AcDbEntity
  8
0
100
AcDbLine
 10
1869.820124394198
 20
1058.967389495671
 30
0.0
 11
1869.820124394198
 21
1177.190125936538
 31
0.0
  0
LINE
  5
68C6
330
254
100
AcDbEntity
  8
0
100
AcDbLine
 10
1006.862875313258
 20
1734.967389495002
 30
0.0
 11
1044.142095926836
 21
1884.967389495671
 31
0.0
  0
LINE
  5
68C9
330
254
100
AcDbEntity
  8
0
100
AcDbLine
 10
1006.862875313258
 20
1039.967389496525
 30
0.0
 11
1028.798793830268
 21
917.4795168738622
 31
0.0
  0
LINE
  5
68CA
330
254
100
AcDbEntity
  8
0
100
AcDbLine
 10
1006.862875313258
 20
1734.967389495002
 30
0.0
 11
1006.862875313257
 21
1039.967389496525
 31
0.0
  0
LINE
  5
68CB
330
254
100
AcDbEntity
  8
0
100
AcDbLine
 10
1566.051184516936
 20
1734.967389495002
 30
0.0
 11
1528.771963903358
 21
1884.967389495671
 31
0.0
  0
LINE
  5
68CC
330
254
100
AcDbEntity
  8
0
100
AcDbLine
 10
1566.051184516938
 20
1039.967389496526
 30
0.0
 11
1541.492660524658
 21
902.8351624491646
 31
0.0
  0
LINE
  5
68CD
330
254
100
AcDbEntity
  8
0
100
AcDbLine
 10
1566.051184516936
 20
1734.967389495002
 30
0.0
 11
1566.051184516938
 21
1039.967389496526
 31
0.0
  0
SPLINE
  5
68CE
330
254
100
AcDbEntity
  8
0
100
AcDbSpline
210
0.0
220
0.0
230
1.0
 70
     8
 71
     3
 72
    14
 73
    10
 74
     0
 42
0.000000001
 43
0.0000000001
 40
39.02957041819265
 40
39.02957041819265
 40
39.02957041819265
 40
39.02957041819265
 40
194.8800461831695
 40
342.9826904264568
 40
397.2070656822365
 40
716.4597498718944
 40
959.5821257480533
 40
1130.824680482271
 40
1263.503726469058
 40
1263.503726469058
 40
1263.503726469058
 40
1263.503726469058
 10
684.9570299150975
 20
839.0040615082975
 30
0.0
 10
738.3764234163407
 20
834.506402498604
 30
0.0
 10
840.9654623719074
 20
832.3154454079295
 30
0.0
 10
943.5633644166696
 20
905.2498627003868
 30
0.0
 10
1116.875081906258
 20
932.3368548966191
 30
0.0
 10
1320.815238732293
 20
878.6966694042034
 30
0.0
 10
1569.403614219657
 20
920.3024317541846
 30
0.0
 10
1742.598800110773
 20
850.6207214155661
 30
0.0
 10
1843.70454813988
 20
841.7469189477216
 30
0.0
 10
1887.957029915098
 20
838.5700344545618
 30
0.0
  0
LINE
  5
68CF
330
254
100
AcDbEntity
  8
0
100
AcDbLine
 10
1700.577982628905
 20
869.967389496586
 30
0.0
 11
1887.957029915097
 21
869.967389496586
 31
0.0
  0
LINE
  5
68E5
330
254
100
AcDbEntity
  8
ALL_ASSEM_MEMBER
  6
Continuous
 62
     7
100
AcDbLine
 10
1869.820124394092
 20
-565.2723342403052
 30
0.0
 11
1806.180514087009
 21
-501.6327239332178
 31
0.0
  0
LINE
  5
68E6
330
254
100
AcDbEntity
  8
0
100
AcDbLine
 10
611.457029915097
 20
212.8321010985473
 30
0.0
 11
701.4570299150972
 21
175.5528804849693
 31
0.0
  0
LINE
  5
68E7
330
254
100
AcDbEntity
  8
0
100
AcDbLine
 10
1006.862875313258
 20
608.2379464967084
 30
0.0
 11
1044.142095926836
 21
518.2379464967088
 31
0.0
  0
LINE
  5
68E8
330
254
100
AcDbEntity
  8
0
100
AcDbLine
 10
1566.051184516936
 20
608.2379464967084
 30
0.0
 11
1528.771963903358
 21
518.2379464967088
 31
0.0
  0
LINE
  5
68E9
330
254
100
AcDbEntity
  8
0
100
AcDbLine
 10
1961.457029915097
 20
212.8321010985474
 30
0.0
 11
1871.457029915097
 21
175.5528804849691
 31
0.0
  0
LINE
  5
68EA
330
254
100
AcDbEntity
  8
0
100
AcDbLine
 10
611.457029915097
 20
-346.3562081051295
 30
0.0
 11
701.4570299150972
 21
-309.0769874915516
 31
0.0
  0
LINE
  5
68EB
330
254
100
AcDbEntity
  8
0
100
AcDbLine
 10
1006.862875313258
 20
-741.7620535032908
 30
0.0
 11
1044.142095926836
 21
-651.762053503291
 31
0.0
  0
LINE
  5
68EC
330
254
100
AcDbEntity
  8
0
100
AcDbLine
 10
1566.051184516936
 20
-741.7620535032908
 30
0.0
 11
1528.771963903358
 21
-651.7620535032911
 31
0.0
  0
LINE
  5
68ED
330
254
100
AcDbEntity
  8
0
100
AcDbLine
 10
1961.457029915097
 20
-346.3562081051296
 30
0.0
 11
1871.457029915097
 21
-309.0769874915515
 31
0.0
  0
CIRCLE
  5
68F1
330
254
100
AcDbEntity
  8
0
100
AcDbCircle
 10
761.4570299150969
 20
458.2379464967091
 30
0.0
 40
7.0
  0
CIRCLE
  5
68F2
330
254
100
AcDbEntity
  8
0
100
AcDbCircle
 10
1811.457029915097
 20
458.2379464967091
 30
0.0
 40
7.0
  0
CIRCLE
  5
68F3
330
254
100
AcDbEntity
  8
0
100
AcDbCircle
 10
761.4570299150969
 20
-591.7620535032912
 30
0.0
 40
7.0
  0
CIRCLE
  5
68F4
330
254
100
AcDbEntity
  8
0
100
AcDbCircle
 10
1811.457029915097
 20
-591.7620535032912
 30
0.0
 40
7.0
  0
LINE
  5
68F9
330
254
100
AcDbEntity
  8
ALL_ASSEM_MEMBER
  6
Continuous
 62
     7
100
AcDbLine
 10
1175.527377492623
 20
-258.0543992417843
 30
0.0
 11
1156.06679169756
 21
-290.4422528950298
 31
0.0
  0
LINE
  5
68FA
330
254
100
AcDbEntity
  8
ALL_ASSEM_MEMBER
  6
Continuous
 62
     7
100
AcDbLine
 10
1166.955704485602
 20
-252.9040184926837
 30
0.0
 11
1147.495118690539
 21
-285.2918721459291
 31
0.0
  0
ARC
  5
68FB
330
254
100
AcDbEntity
  8
ALL_ASSEM_MEMBER
  6
Continuous
 62
     7
100
AcDbCircle
 10
1161.511248091579
 20
-271.6731356938599
 30
0.0
 40
15.0
100
AcDbArc
 50
258.5261515299099
 51
39.47384847009417
  0
ARC
  5
68FC
330
254
100
AcDbEntity
  8
ALL_ASSEM_MEMBER
  6
Continuous
 62
     7
100
AcDbCircle
 10
1161.511248091579
 20
-271.6731356938599
 30
0.0
 40
15.0
100
AcDbArc
 50
78.52615152990987
 51
219.4738484700942
  0
ARC
  5
68FD
330
254
100
AcDbEntity
  8
ALL_ASSEM_MEMBER
  6
Continuous
 62
     7
100
AcDbCircle
 10
1161.511248091579
 20
-271.6731356938599
 30
0.0
 40
6.0
100
AcDbArc
 50
115.4505227781743
 51
182.5494768178109
  0
ARC
  5
68FE
330
254
100
AcDbEntity
  8
ALL_ASSEM_MEMBER
  6
Continuous
 62
     7
100
AcDbCircle
 10
1161.511248091579
 20
-271.6731356938599
 30
0.0
 40
6.0
100
AcDbArc
 50
295.4505227781743
 51
2.549476817810925
  0
ARC
  5
68FF
330
254
100
AcDbEntity
  8
ALL_ASSEM_MEMBER
  6
Continuous
 62
     7
100
AcDbCircle
 10
1161.511248091579
 20
-271.6731356938599
 30
0.0
 40
5.299999446
100
AcDbArc
 50
129.7510870533091
 51
168.2488688587931
  0
ARC
  5
6900
330
254
100
AcDbEntity
  8
ALL_ASSEM_MEMBER
  6
Continuous
 62
     7
100
AcDbCircle
 10
1161.511248091579
 20
-271.6731356938599
 30
0.0
 40
5.299999446
100
AcDbArc
 50
309.7510870533092
 51
348.2488688587931
  0
ARC
  5
6901
330
254
100
AcDbEntity
  8
ALL_ASSEM_MEMBER
  6
Continuous
 62
     7
100
AcDbCircle
 10
1171.241576074535
 20
-255.4791504752857
 30
0.0
 40
5.0
100
AcDbArc
 50
328.9999999789948
 51
149.0000000210045
  0
ARC
  5
6902
330
254
100
AcDbEntity
  8
ALL_ASSEM_MEMBER
  6
Continuous
 62
     7
100
AcDbCircle
 10
1151.780920108627
 20
-287.8671209124279
 30
0.0
 40
5.0
100
AcDbArc
 50
148.9999999789947
 51
329.0000000210047
  0
LINE
  5
690D
330
254
100
AcDbEntity
  8
ALL_ASSEM_MEMBER
  6
Continuous
 62
     7
100
AcDbLine
 10
1425.418941139658
 20
151.767765139353
 30
0.0
 11
1405.958355344595
 21
119.3799114861074
 31
0.0
  0
LINE
  5
690E
330
254
100
AcDbEntity
  8
ALL_ASSEM_MEMBER
  6
Continuous
 62
     7
100
AcDbLine
 10
1416.847268132637
 20
156.9181458884536
 30
0.0
 11
1397.386682337574
 21
124.5302922352082
 31
0.0
  0
ARC
  5
690F
330
254
100
AcDbEntity
  8
ALL_ASSEM_MEMBER
  6
Continuous
 62
     7
100
AcDbCircle
 10
1411.402811738614
 20
138.1490286872774
 30
0.0
 40
15.0
100
AcDbArc
 50
258.5261515299099
 51
39.47384847009417
  0
ARC
  5
6910
330
254
100
AcDbEntity
  8
ALL_ASSEM_MEMBER
  6
Continuous
 62
     7
100
AcDbCircle
 10
1411.402811738614
 20
138.1490286872774
 30
0.0
 40
15.0
100
AcDbArc
 50
78.52615152990987
 51
219.4738484700942
  0
ARC
  5
6911
330
254
100
AcDbEntity
  8
ALL_ASSEM_MEMBER
  6
Continuous
 62
     7
100
AcDbCircle
 10
1411.402811738614
 20
138.1490286872774
 30
0.0
 40
6.0
100
AcDbArc
 50
115.4505227781743
 51
182.5494768178109
  0
ARC
  5
6912
330
254
100
AcDbEntity
  8
ALL_ASSEM_MEMBER
  6
Continuous
 62
     7
100
AcDbCircle
 10
1411.402811738614
 20
138.1490286872774
 30
0.0
 40
6.0
100
AcDbArc
 50
295.4505227781743
 51
2.549476817810925
  0
ARC
  5
6913
330
254
100
AcDbEntity
  8
ALL_ASSEM_MEMBER
  6
Continuous
 62
     7
100
AcDbCircle
 10
1411.402811738614
 20
138.1490286872774
 30
0.0
 40
5.299999446
100
AcDbArc
 50
129.7510870533091
 51
168.2488688587931
  0
ARC
  5
6914
330
254
100
AcDbEntity
  8
ALL_ASSEM_MEMBER
  6
Continuous
 62
     7
100
AcDbCircle
 10
1411.402811738614
 20
138.1490286872774
 30
0.0
 40
5.299999446
100
AcDbArc
 50
309.7510870533092
 51
348.2488688587931
  0
ARC
  5
6915
330
254
100
AcDbEntity
  8
ALL_ASSEM_MEMBER
  6
Continuous
 62
     7
100
AcDbCircle
 10
1421.13313972157
 20
154.3430139058516
 30
0.0
 40
5.0
100
AcDbArc
 50
328.9999999789948
 51
149.0000000210045
  0
ARC
  5
6916
330
254
100
AcDbEntity
  8
ALL_ASSEM_MEMBER
  6
Continuous
 62
     7
100
AcDbCircle
 10
1401.672483755662
 20
121.9550434687094
 30
0.0
 40
5.0
100
AcDbArc
 50
148.9999999789947
 51
329.0000000210047
  0
ARC
  5
691A
330
254
100
AcDbEntity
  8
ALL_ASSEM_MEMBER
  6
Continuous
 62
     7
100
AcDbCircle
 10
1161.457029915097
 20
1884.967389495671
 30
0.0
 40
33.23538406300001
100
AcDbArc
 50
359.1392528100056
 51
180.8607471900074
  0
ARC
  5
691B
330
254
100
AcDbEntity
  8
ALL_ASSEM_MEMBER
  6
Continuous
 62
     7
100
AcDbCircle
 10
1161.457029915097
 20
1884.967389495671
 30
0.0
 40
19.2353840605
100
AcDbArc
 50
358.5038351609068
 51
181.4961648391061
  0
LINE
  5
691C
330
254
100
AcDbEntity
  8
0
100
AcDbLine
 10
1613.551184516936
 20
560.7379464967087
 30
0.0
 11
1913.957029915097
 21
560.7379464967087
 31
0.0
  0
LINE
  5
691D
330
254
100
AcDbEntity
  8
0
100
AcDbLine
 10
658.9570299150969
 20
260.3321010985474
 30
0.0
 11
658.9570299150969
 21
560.7379464967087
 31
0.0
  0
LINE
  5
691E
330
254
100
AcDbEntity
  8
0
100
AcDbLine
 10
1913.957029915097
 20
-393.8562081051305
 30
0.0
 11
1913.957029915097
 21
-694.2620535032911
 31
0.0
  0
LINE
  5
691F
330
254
100
AcDbEntity
  8
0
100
AcDbLine
 10
959.3628753132581
 20
-694.2620535032911
 30
0.0
 11
658.9570299150969
 21
-694.2620535032911
 31
0.0
  0
LINE
  5
6921
330
254
100
AcDbEntity
  8
0
100
AcDbLine
 10
658.9570299150969
 20
2104.063316108369
 30
0.0
 11
1913.957029915097
 21
2104.063316108369
 31
0.0
  0
LINE
  5
6923
330
254
100
AcDbEntity
  8
0
100
AcDbLine
 10
1913.957029915097
 20
2104.063316108369
 30
0.0
 11
1913.957029915097
 21
3359.06331610837
 31
0.0
  0
LINE
  5
6925
330
254
100
AcDbEntity
  8
0
100
AcDbLine
 10
1913.957029915097
 20
3359.06331610837
 30
0.0
 11
658.9570299150969
 21
3359.06331610837
 31
0.0
  0
LINE
  5
6927
330
254
100
AcDbEntity
  8
0
100
AcDbLine
 10
658.9570299150969
 20
3359.06331610837
 30
0.0
 11
658.9570299150969
 21
2104.063316108369
 31
0.0
  0
LINE
  5
6928
330
254
100
AcDbEntity
  8
02__ASM_ALL_AXES
  6
CENTER
 62
     2
100
AcDbLine
 10
1286.457029915097
 20
2036.563316108369
 30
0.0
 11
1286.457029915097
 21
3426.563316108369
 31
0.0
  0
LINE
  5
6929
330
254
100
AcDbEntity
  8
02__ASM_ALL_AXES
  6
CENTER
 62
     2
100
AcDbLine
 10
591.457029915097
 20
2731.563316108369
 30
0.0
 11
1981.457029915097
 21
2731.563316108369
 31
0.0
  0
LWPOLYLINE
  5
698F
330
254
100
AcDbEntity
  8
0
100
AcDbPolyline
 90
        4
 70
     0
 43
0.0
 10
1613.551184516936
 20
2104.063316108369
 10
1566.051184516936
 20
2056.563316108369
 10
1006.862875313258
 20
2056.563316108369
 10
959.3628753132581
 20
2104.063316108369
  0
LINE
  5
6992
330
254
100
AcDbEntity
  8
0
100
AcDbLine
 10
611.457029915097
 20
2451.969161506531
 30
0.0
 11
658.9570299150969
 21
2471.644305719252
 31
0.0
  0
LINE
  5
6993
330
254
100
AcDbEntity
  8
0
100
AcDbLine
 10
1006.862875313258
 20
2056.563316108369
 30
0.0
 11
1026.53801952598
 21
2104.063316108369
 31
0.0
  0
LINE
  5
6994
330
254
100
AcDbEntity
  8
0
100
AcDbLine
 10
1566.051184516936
 20
2056.563316108369
 30
0.0
 11
1546.376040304215
 21
2104.063316108369
 31
0.0
  0
LINE
  5
6995
330
254
100
AcDbEntity
  8
0
100
AcDbLine
 10
1961.457029915097
 20
2451.969161506531
 30
0.0
 11
1913.957029915097
 21
2471.644305719252
 31
0.0
  0
LINE
  5
6996
330
254
100
AcDbEntity
  8
0
100
AcDbLine
 10
611.457029915097
 20
3011.157470710208
 30
0.0
 11
658.9570299150969
 21
2991.482326497486
 31
0.0
  0
LINE
  5
6997
330
254
100
AcDbEntity
  8
0
100
AcDbLine
 10
1006.862875313258
 20
3406.56331610837
 30
0.0
 11
1026.53801952598
 21
3359.06331610837
 31
0.0
  0
LINE
  5
6998
330
254
100
AcDbEntity
  8
0
100
AcDbLine
 10
1566.051184516936
 20
3406.563316108368
 30
0.0
 11
1546.376040304215
 21
3359.06331610837
 31
0.0
  0
LINE
  5
6999
330
254
100
AcDbEntity
  8
0
100
AcDbLine
 10
1961.457029915097
 20
3011.157470710208
 30
0.0
 11
1913.957029915097
 21
2991.482326497485
 31
0.0
  0
CIRCLE
  5
699A
330
254
100
AcDbEntity
  8
0
100
AcDbCircle
 10
761.4570299150969
 20
2206.563316108369
 30
0.0
 40
7.0
  0
CIRCLE
  5
699B
330
254
100
AcDbEntity
  8
0
100
AcDbCircle
 10
1811.457029915097
 20
2206.563316108369
 30
0.0
 40
7.0
  0
CIRCLE
  5
699C
330
254
100
AcDbEntity
  8
0
100
AcDbCircle
 10
761.4570299150969
 20
3256.56331610837
 30
0.0
 40
7.0
  0
CIRCLE
  5
699D
330
254
100
AcDbEntity
  8
0
100
AcDbCircle
 10
1811.457029915097
 20
3256.56331610837
 30
0.0
 40
7.0
  0
CIRCLE
  5
69B3
330
254
100
AcDbEntity
  8
0
100
AcDbCircle
 10
1286.457029915097
 20
2731.563316108369
 30
0.0
 40
290.4999999999997
  0
LWPOLYLINE
  5
69B4
330
254
100
AcDbEntity
  8
0
100
AcDbPolyline
 90
        4
 70
     0
 43
0.0
 10
658.9570299150969
 20
2404.469161506531
 10
611.457029915097
 20
2451.969161506531
 10
611.4570299150972
 20
3011.157470710208
 10
658.9570299150968
 20
3058.657470710207
  0
LWPOLYLINE
  5
69B5
330
254
100
AcDbEntity
  8
0
100
AcDbPolyline
 90
        4
 70
     0
 43
0.0
 10
959.3628753132581
 20
3359.06331610837
 10
1006.862875313258
 20
3406.563316108368
 10
1566.051184516935
 20
3406.56331610837
 10
1613.551184516936
 20
3359.06331610837
  0
LWPOLYLINE
  5
69B6
330
254
100
AcDbEntity
  8
0
100
AcDbPolyline
 90
        4
 70
     0
 43
0.0
 10
1913.957029915097
 20
3058.657470710208
 10
1961.457029915097
 20
3011.157470710208
 10
1961.457029915097
 20
2451.969161506531
 10
1913.957029915097
 20
2404.469161506531
  0
CIRCLE
  5
69B7
330
254
100
AcDbEntity
  8
02__ASM_ALL_AXES
  6
CENTER
 62
     2
100
AcDbCircle
 10
1286.457029915097
 20
2731.563316108369
 30
0.0
 40
430.0
  0
INSERT
  5
69C1
102
{ACAD_REACTORS
330
69CA
102
}
330
254
100
AcDbEntity
  8
0
100
AcDbBlockReference
  2
*U100
 10
0.0
 20
0.0
 30
0.0
  0
LINE
  5
69DD
330
254
100
AcDbEntity
  8
0
100
AcDbLine
 10
1911.957029915097
 20
3357.063316108369
 30
0.0
 11
660.9570299150967
 21
3357.063316108369
 31
0.0
  0
LINE
  5
69DE
330
254
100
AcDbEntity
  8
0
100
AcDbLine
 10
660.9570299150967
 20
3357.063316108369
 30
0.0
 11
660.9570299150971
 21
2106.063316108369
 31
0.0
  0
LINE
  5
69DF
330
254
100
AcDbEntity
  8
0
100
AcDbLine
 10
1911.957029915097
 20
2106.063316108369
 30
0.0
 11
1911.957029915097
 21
3357.063316108369
 31
0.0
  0
LINE
  5
69E0
330
254
100
AcDbEntity
  8
0
100
AcDbLine
 10
660.9570299150971
 20
2106.063316108369
 30
0.0
 11
1911.957029915097
 21
2106.063316108369
 31
0.0
  0
CIRCLE
  5
6A4D
330
254
100
AcDbEntity
  8
0
100
AcDbCircle
 10
1286.457029915097
 20
2731.563316108369
 30
0.0
 40
347.7698396495002
  0
VIEWPORT
  5
6AC0
330
255
100
AcDbEntity
 67
     1
  8
0
100
AcDbViewport
 10
297.0
 20
210.0
 30
0.0
 40
712.8
 41
504.0
 68
     1
 69
     1
 12
297.0
 22
210.0
 13
0.0
 23
0.0
 14
0.5
 24
0.5
 15
0.0
 25
0.0
 16
0.0
 26
0.0
 36
1.0
 17
0.0
 27
0.0
 37
0.0
 42
50.0
 43
0.0
 44
0.0
 45
504.0
 50
0.0
 51
0.0
 72
   100
 90
   557152
  1

281
     0
 71
     1
 74
     0
110
0.0
120
0.0
130
0.0
111
1.0
121
0.0
131
0.0
112
0.0
122
1.0
132
0.0
 79
     0
146
0.0
  0
VIEWPORT
  5
6AC1
330
255
100
AcDbEntity
 67
     1
  8
0
100
AcDbViewport
 10
297.0
 20
210.0
 30
0.0
 40
475.2
 41
336.0
 68
     2
 69
     2
 12
1286.457029915097
 22
1332.400631302539
 13
0.0
 23
0.0
 14
0.5
 24
0.5
 15
0.0
 25
0.0
 16
0.0
 26
0.0
 36
1.0
 17
0.0
 27
0.0
 37
0.0
 42
50.0
 43
0.0
 44
0.0
 45
4272.091877003893
 50
0.0
 51
0.0
 72
   100
 90
   557152
  1

281
     0
 71
     1
 74
     0
110
0.0
120
0.0
130
0.0
111
1.0
121
0.0
131
0.0
112
0.0
122
1.0
132
0.0
 79
     0
146
0.0
  0
ENDSEC
  0
SECTION
  2
OBJECTS
  0
DICTIONARY
  5
C
330
0
100
AcDbDictionary
281
     1
  3
ACAD_ASSOCNETWORK
350
33DB
  3
ACAD_CIP_PREVIOUS_PRODUCT_INFO
350
3246
  3
ACAD_DETAILVIEWSTYLE
350
3243
  3
ACAD_GROUP
350
D
  3
ACAD_IMAGE_VARS
350
3203
  3
ACAD_LAYOUT
350
1A
  3
ACAD_MATERIAL
350
6AC4
  3
ACAD_MLINESTYLE
350
17
  3
ACAD_PLOTSETTINGS
350
19
  3
ACAD_PLOTSTYLENAME
350
E
  3
ACAD_SCALELIST
350
31C0
  3
ACAD_SECTIONVIEWSTYLE
350
3241
  3
AcDbVariableDictionary
350
3319
  3
APPDATA
350
3201
  3
DWGPROPS
350
6AC3
  0
DICTIONARY
  5
336B
330
2
100
AcDbDictionary
280
     1
281
     1
  3
ACAD_LAYERSTATES
360
336C
  0
DICTIONARY
  5
3269
330
10
100
AcDbDictionary
280
     1
281
     1
  3
ADSK_XREC_LAYER_RECONCILED
360
326A
  0
DICTIONARY
  5
327D
330
203
100
AcDbDictionary
280
     1
281
     1
  3
ADSK_XREC_LAYER_RECONCILED
360
327E
  0
DICTIONARY
  5
32B5
330
21F
100
AcDbDictionary
280
     1
281
     1
  3
ADSK_XREC_LAYER_RECONCILED
360
32B6
  0
DICTIONARY
  5
3382
330
254
100
AcDbDictionary
280
     1
281
     1
  3
ACAD_ASSOCNETWORK
360
33D9
  3
ACAD_SORTENTS
360
3383
  0
DICTIONARY
  5
6A3E
330
69BE
100
AcDbDictionary
280
     1
281
     1
  3
AcDbBlockTableRecordData
360
6A93
  0
DICTIONARY
  5
33DB
102
{ACAD_REACTORS
330
C
102
}
330
C
100
AcDbDictionary
281
     1
  3
ACAD_ASSOCNETWORK
350
33DC
  0
XRECORD
  5
3246
102
{ACAD_REACTORS
330
C
102
}
330
C
100
AcDbXrecord
280
     1
300
ACD
300
2015
300
ACD_F_S
  0
DICTIONARY
  5
3243
102
{ACAD_REACTORS
330
C
102
}
330
C
100
AcDbDictionary
281
     1
  3
Metric50
350
3244
  0
DICTIONARY
  5
D
102
{ACAD_REACTORS
330
C
102
}
330
C
100
AcDbDictionary
281
     1
  0
RASTERVARIABLES
  5
3203
102
{ACAD_REACTORS
330
C
102
}
330
C
100
AcDbRasterVariables
 90
        0
 70
     1
 71
     1
 72
     1
  0
DICTIONARY
  5
1A
102
{ACAD_REACTORS
330
C
102
}
330
C
100
AcDbDictionary
281
     1
  3
Layout1
350
31BE
  3
Model
350
31BD
  0
DICTIONARY
  5
6AC4
102
{ACAD_REACTORS
330
C
102
}
330
C
100
AcDbDictionary
281
     1
  3
ByBlock
350
6AC6
  3
ByLayer
350
6AC5
  3
Global
350
6AC7
  0
DICTIONARY
  5
17
102
{ACAD_REACTORS
330
C
102
}
330
C
100
AcDbDictionary
281
     1
  3
Standard
350
18
  0
DICTIONARY
  5
19
102
{ACAD_REACTORS
330
C
102
}
330
C
100
AcDbDictionary
281
     1
  0
ACDBDICTIONARYWDFLT
  5
E
102
{ACAD_REACTORS
330
C
102
}
330
C
100
AcDbDictionary
281
     1
  3
Normal
350
F
100
AcDbDictionaryWithDefault
340
F
  0
DICTIONARY
  5
31C0
102
{ACAD_REACTORS
330
C
102
}
330
C
100
AcDbDictionary
281
     1
  3
A0
350
31C1
  3
A1
350
31C2
  3
A2
350
31C3
  3
A3
350
31C4
  3
A4
350
31C5
  3
A5
350
31C6
  3
A6
350
31C7
  3
A7
350
31C8
  3
A8
350
31C9
  3
A9
350
31CA
  3
B0
350
31CB
  3
B1
350
31CC
  3
B2
350
31CD
  3
B3
350
31CE
  3
B4
350
31CF
  3
B5
350
31D0
  3
B6
350
31D1
  3
B7
350
31D2
  3
B8
350
31D3
  3
B9
350
31D4
  3
C0
350
31D5
  3
C1
350
31D6
  3
C2
350
31D7
  3
C3
350
31D8
  3
C4
350
31D9
  3
C5
350
31DA
  3
C6
350
31DB
  3
C7
350
31DC
  3
C8
350
31DD
  3
C9
350
31DE
  3
D0
350
31DF
  3
D1
350
31E0
  3
D2
350
31E1
  0
DICTIONARY
  5
3241
102
{ACAD_REACTORS
330
C
102
}
330
C
100
AcDbDictionary
281
     1
  3
Metric50
350
3242
  0
DICTIONARY
  5
3319
102
{ACAD_REACTORS
330
C
102
}
330
C
100
AcDbDictionary
281
     1
  3
DIMASSOC
350
69F0
  3
INDEXCTL
350
69EF
  3
SORTENTS
350
69EE
  0
DICTIONARY
  5
3201
102
{ACAD_REACTORS
330
C
102
}
330
C
100
AcDbDictionary
281
     1
  0
XRECORD
  5
6AC3
102
{ACAD_REACTORS
330
C
102
}
330
C
100
AcDbXrecord
280
     1
  1
DWGPROPS COOKIE
  2

  3

  4

  6

  7

  8
d610igzo
  9

300
=
301
=
302
=
303
=
304
=
305
=
306
=
307
=
308
=
309
=
 40
0.0
 41
2457071.878731447
 42
2457072.624003229
  1

 90
        0
  0
DICTIONARY
  5
336C
102
{ACAD_REACTORS
330
336B
102
}
330
336B
100
AcDbDictionary
281
     1
  0
XRECORD
  5
326A
102
{ACAD_REACTORS
330
3269
102
}
330
3269
100
AcDbXrecord
280
     1
290
     1
  0
XRECORD
  5
327E
102
{ACAD_REACTORS
330
327D
102
}
330
327D
100
AcDbXrecord
280
     1
290
     1
  0
XRECORD
  5
32B6
102
{ACAD_REACTORS
330
32B5
102
}
330
32B5
100
AcDbXrecord
280
     1
290
     1
  0
DICTIONARY
  5
33D9
102
{ACAD_REACTORS
330
3382
102
}
330
3382
100
AcDbDictionary
281
     1
  3
ACAD_ASSOCNETWORK
350
33DA
  0
SORTENTSTABLE
  5
3383
102
{ACAD_REACTORS
330
3382
102
}
330
3382
100
AcDbSortentsTable
330
254
331
478
  5
478
331
489
  5
489
331
5072
  5
5072
331
5073
  5
5073
331
5074
  5
5074
331
5075
  5
5075
331
5076
  5
5076
331
5077
  5
5077
331
5079
  5
5079
331
507B
  5
507B
331
507C
  5
507C
331
507D
  5
507D
331
507E
  5
507E
331
507F
  5
507F
331
5080
  5
5080
331
5081
  5
5081
331
5082
  5
5082
331
5083
  5
5083
331
5084
  5
5084
331
5085
  5
5085
331
5086
  5
5086
331
5087
  5
5087
331
5088
  5
5088
331
5089
  5
5089
331
508B
  5
508B
331
50A4
  5
50A6
331
50A5
  5
50A7
331
50A6
  5
50AA
331
50A7
  5
50AB
331
50AA
  5
50AC
331
50AB
  5
50AD
331
50AC
  5
50AE
331
50AD
  5
50AF
331
50AE
  5
50B2
331
50AF
  5
50B3
331
50B2
  5
50B4
331
50B3
  5
50B5
331
50B4
  5
50BA
331
50B5
  5
50BB
331
50BA
  5
50BC
331
50BB
  5
50BD
331
50BC
  5
50CD
331
50BD
  5
50CE
331
50CD
  5
50CF
331
50CE
  5
50D0
331
50CF
  5
50D1
331
50D0
  5
50D2
331
50D1
  5
50E5
331
50D2
  5
50E6
331
50E5
  5
50E7
331
50E6
  5
50E8
331
50E7
  5
50E9
331
50E8
  5
50EA
331
50E9
  5
50FF
331
50EA
  5
5101
331
50FF
  5
5102
331
5101
  5
5106
331
5102
  5
5107
331
5106
  5
5108
331
5107
  5
5109
331
5108
  5
510A
331
5109
  5
5115
331
510A
  5
5116
331
5115
  5
5118
331
5116
  5
5119
331
5118
  5
511C
331
5119
  5
511D
331
511C
  5
511E
331
511D
  5
5120
331
511E
  5
5122
331
5120
  5
5124
331
5122
  5
5129
331
5124
  5
512A
331
5129
  5
512B
331
512A
  5
5130
331
512B
  5
5131
331
5130
  5
5132
331
5131
  5
5134
331
5132
  5
513C
331
5134
  5
513D
331
513C
  5
5142
331
513D
  5
5143
331
5142
  5
5148
331
5143
  5
5149
331
5148
  5
514D
331
5149
  5
514E
331
514D
  5
514F
331
514E
  5
5150
331
514F
  5
5151
331
5150
  5
5154
331
5151
  5
5157
331
5154
  5
5159
331
5157
  5
515A
331
5159
  5
515B
331
515A
  5
515C
331
515B
  5
515D
331
515C
  5
5198
331
515D
  5
51A3
331
5198
  5
51A4
331
51A3
  5
51AF
331
51A4
  5
51B0
331
51AF
  5
51BA
331
51B0
  5
51E5
331
51BA
  5
51F7
331
64E8
  5
64EA
331
64E9
  5
64EB
331
64EA
  5
64EE
331
64EB
  5
64EF
331
64EE
  5
64FF
331
64EF
  5
6500
331
64FF
  5
6501
331
6500
  5
6502
331
6501
  5
6504
331
6502
  5
6506
331
6504
  5
650F
331
6506
  5
6510
331
650F
  5
6513
331
6510
  5
6514
331
67EA
  5
67EC
331
67EB
  5
67EE
331
67EC
  5
67F0
331
67ED
  5
67FA
331
67EE
  5
67FC
331
67EF
  5
67FE
331
67F0
  5
67FF
331
67F1
  5
6800
331
67F2
  5
6801
331
67F8
  5
6802
331
67FA
  5
6804
331
67FB
  5
6807
331
67FC
  5
6808
331
67FD
  5
680A
331
67FE
  5
680B
331
67FF
  5
680C
331
6800
  5
680D
331
6801
  5
680E
331
6802
  5
680F
331
6804
  5
6810
331
6807
  5
6811
331
6808
  5
6812
331
680A
  5
6813
331
680B
  5
6814
331
680C
  5
6815
331
680D
  5
6816
331
680E
  5
6817
331
680F
  5
6818
331
6810
  5
681B
331
6811
  5
681C
331
6812
  5
681D
331
6813
  5
681E
331
6814
  5
681F
331
6815
  5
6820
331
6816
  5
6821
331
6817
  5
6822
331
6818
  5
6823
331
681B
  5
6824
331
681C
  5
6827
331
681D
  5
6830
331
681E
  5
6831
331
681F
  5
6832
331
6820
  5
6833
331
6821
  5
6834
331
6822
  5
6838
331
6823
  5
683A
331
6824
  5
683B
331
6827
  5
683C
331
6830
  5
6840
331
6831
  5
6841
331
6832
  5
6843
331
6833
  5
6844
331
6834
  5
6845
331
6838
  5
6846
331
683A
  5
6847
331
683B
  5
6848
331
683C
  5
6849
331
6840
  5
684A
331
6841
  5
684C
331
6843
  5
684E
331
6844
  5
684F
331
6845
  5
6850
331
6846
  5
6851
331
6847
  5
6852
331
6848
  5
6853
331
6849
  5
6854
331
684A
  5
6855
331
684C
  5
6856
331
684E
  5
6857
331
684F
  5
6858
331
6850
  5
685A
331
6851
  5
685D
331
6852
  5
685E
331
6853
  5
685F
331
6854
  5
6860
331
6855
  5
6861
331
6856
  5
6864
331
6857
  5
6865
331
6858
  5
6866
331
685A
  5
686A
331
685D
  5
686B
331
685E
  5
686E
331
685F
  5
686F
331
6860
  5
6870
331
6861
  5
6871
331
6866
  5
6874
331
686A
  5
6875
331
686B
  5
6876
331
686E
  5
6877
331
686F
  5
6878
331
6870
  5
6879
331
6871
  5
687A
331
6872
  5
687B
331
6873
  5
687C
331
6874
  5
687D
331
6875
  5
687E
331
6876
  5
688E
331
6877
  5
688F
331
6878
  5
6890
331
6879
  5
6891
331
687A
  5
6892
331
687B
  5
6893
331
687C
  5
6894
331
687D
  5
6895
331
687E
  5
6896
331
6894
  5
68A6
331
6895
  5
68A7
331
689E
  5
68A8
331
68A0
  5
68B3
331
68A1
  5
68B4
331
68A2
  5
68B5
331
68A3
  5
68B6
331
68A4
  5
68B7
331
68A5
  5
68B8
331
68A6
  5
68B9
331
68A7
  5
68BA
331
68A8
  5
68BB
331
68B3
  5
68BC
331
68B4
  5
68BE
331
68B5
  5
68BF
331
68B6
  5
68C0
331
68B7
  5
68C1
331
68B8
  5
68C2
331
68B9
  5
68C3
331
68BA
  5
68C6
331
68BD
  5
68CA
331
68BE
  5
68CB
331
68BF
  5
68CC
331
68C0
  5
68CD
331
68C1
  5
68CE
331
68C2
  5
68CF
331
68C6
  5
68E5
331
68C9
  5
68E6
331
68CA
  5
68E7
331
68CB
  5
68E8
331
68CC
  5
68E9
331
68CD
  5
68EA
331
68CE
  5
68EB
331
68CF
  5
68C9
331
68E5
  5
68EC
331
68E6
  5
68ED
331
68E7
  5
68EE
331
68E8
  5
68EF
331
68E9
  5
68F0
331
68EA
  5
68F1
331
68EB
  5
68F2
331
68EC
  5
68F3
331
68ED
  5
68F4
331
68F1
  5
68F5
331
68F2
  5
68F6
331
68F3
  5
68F9
331
68F4
  5
68FA
331
68F9
  5
68FD
331
68FA
  5
68FE
331
68FB
  5
68FF
331
68FC
  5
6900
331
68FD
  5
6901
331
68FE
  5
6902
331
68FF
  5
690D
331
6900
  5
690E
331
6901
  5
690F
331
6902
  5
6910
331
690D
  5
6911
331
690E
  5
6912
331
690F
  5
6913
331
6910
  5
6914
331
6911
  5
6915
331
6912
  5
6916
331
6913
  5
691A
331
6914
  5
691B
331
6915
  5
691C
331
6916
  5
691D
331
691A
  5
691E
331
691B
  5
691F
331
691C
  5
67ED
331
691D
  5
67FB
331
691E
  5
67EF
331
691F
  5
67F3
331
6921
  5
6921
331
6923
  5
6925
331
6925
  5
6928
331
6927
  5
698F
331
6928
  5
6993
331
6929
  5
6994
331
698F
  5
6995
331
6992
  5
6999
331
6993
  5
699A
331
6994
  5
699B
331
6995
  5
699C
331
6996
  5
699D
331
6997
  5
69B3
331
6998
  5
69B4
331
6999
  5
69B5
331
699A
  5
69B6
331
699B
  5
69B7
331
699C
  5
69C1
331
699D
  5
69DD
331
69B3
  5
69DE
331
69B4
  5
6996
331
69B5
  5
6997
331
69B6
  5
6998
331
69B7
  5
69DF
331
69C1
  5
69E0
331
69DD
  5
6929
331
69DE
  5
6992
331
69DF
  5
6927
331
69E0
  5
6923
  0
DICTIONARY
  5
6A93
102
{ACAD_REACTORS
330
6A3E
102
}
330
6A3E
100
AcDbDictionary
280
     1
281
     1
  0
ACDBASSOCNETWORK
  5
33DC
102
{ACAD_REACTORS
330
33DB
102
}
330
33DB
100
AcDbAssocAction
 90
        1
 90
        1
330
0
360
0
 90
        0
 90
        0
 90
        0
100
AcDbAssocNetwork
 90
        0
 90
        1
 90
        1
330
33DA
 90
        1
330
33DA
  0
ACDBDETAILVIEWSTYLE
  5
3244
102
{ACAD_REACTORS
330
3243
102
}
102
{ACAD_XDICTIONARY
360
6A8E
102
}
330
3243
100
AcDbModelDocViewStyle
 70
     0
  3
Metric50
290
     0
100
AcDbDetailViewStyle
 70
     0
 71
     0
 90
        3
 71
     1
340
11
 40
5.0
340
0
 40
5.0
300

 40
0.0
280
     1
 71
     2
340
16
 90
       25
 71
     3
340
11
 40
5.0
 90
        0
 40
15.0
 90
        1
300
%<\AcVar ViewDetailId>% (%<\AcVar ViewScale \f "%sn">%)
 71
     4
340
16
 90
       25
340
16
 90
       25
280
     0
  0
LAYOUT
  5
31BE
102
{ACAD_REACTORS
330
1A
102
}
330
1A
100
AcDbPlotSettings
  1

  2
none_device
  4
ISO_A2_(594.00_x_420.00_MM)
  6

 40
0.0
 41
0.0
 42
0.0
 43
0.0
 44
594.0
 45
420.0
 46
0.0
 47
0.0
 48
0.0
 49
0.0
140
0.0
141
0.0
142
1.0
143
1.0
 70
     0
 72
     1
 73
     0
 74
     0
  7

 75
     0
147
1.0
148
0.0
149
0.0
100
AcDbLayout
  1
Layout1
 70
     1
 71
     1
 10
0.0
 20
0.0
 11
594.0
 21
420.0
 12
0.0
 22
0.0
 32
0.0
 14
1.000000000000000E+20
 24
1.000000000000000E+20
 34
1.000000000000000E+20
 15
-1.000000000000000E+20
 25
-1.000000000000000E+20
 35
-1.000000000000000E+20
146
0.0
 13
0.0
 23
0.0
 33
0.0
 16
1.0
 26
0.0
 36
0.0
 17
0.0
 27
1.0
 37
0.0
 76
     0
330
255
331
6AC0
  0
LAYOUT
  5
31BD
102
{ACAD_REACTORS
330
1A
102
}
330
1A
100
AcDbPlotSettings
  1

  2
none_device
  4
ISO_A2_(594.00_x_420.00_MM)
  6

 40
0.0
 41
0.0
 42
0.0
 43
0.0
 44
594.0
 45
420.0
 46
0.0
 47
0.0
 48
0.0
 49
0.0
140
0.0
141
0.0
142
1.0
143
1.0
 70
  1024
 72
     1
 73
     0
 74
     0
  7

 75
     0
147
1.0
148
0.0
149
0.0
100
AcDbLayout
  1
Model
 70
     0
 71
     0
 10
461.7916842758086
 20
-902.0479217116902
 11
2117.968021912454
 21
3567.938214052524
 12
0.0
 22
0.0
 32
0.0
 14
591.457029915097
 24
-761.7620535032909
 34
0.0
 15
0.0
 25
0.0
 35
0.0
146
0.0
 13
0.0
 23
0.0
 33
0.0
 16
1.0
 26
0.0
 36
0.0
 17
0.0
 27
1.0
 37
0.0
 76
     0
330
254
331
1F4
  0
MATERIAL
  5
6AC6
102
{ACAD_REACTORS
330
6AC4
102
}
330
6AC4
100
AcDbMaterial
  1
ByBlock
  0
MATERIAL
  5
6AC5
102
{ACAD_REACTORS
330
6AC4
102
}
330
6AC4
100
AcDbMaterial
  1
ByLayer
  0
MATERIAL
  5
6AC7
102
{ACAD_REACTORS
330
6AC4
102
}
330
6AC4
100
AcDbMaterial
  1
Global
  0
MLINESTYLE
  5
18
102
{ACAD_REACTORS
330
17
102
}
330
17
100
AcDbMlineStyle
  2
STANDARD
 70
     0
  3

 62
   256
 51
90.0
 52
90.0
 71
     2
 49
0.5
 62
   256
  6
BYLAYER
 49
-0.5
 62
   256
  6
BYLAYER
  0
ACDBPLACEHOLDER
  5
F
102
{ACAD_REACTORS
330
E
102
}
330
E
  0
SCALE
  5
31C1
102
{ACAD_REACTORS
330
31C0
102
}
330
31C0
100
AcDbScale
 70
     0
300
1:1
140
1.0
141
1.0
290
     1
  0
SCALE
  5
31C2
102
{ACAD_REACTORS
330
31C0
102
}
330
31C0
100
AcDbScale
 70
     0
300
1:2
140
1.0
141
2.0
290
     0
  0
SCALE
  5
31C3
102
{ACAD_REACTORS
330
31C0
102
}
330
31C0
100
AcDbScale
 70
     0
300
1:4
140
1.0
141
4.0
290
     0
  0
SCALE
  5
31C4
102
{ACAD_REACTORS
330
31C0
102
}
330
31C0
100
AcDbScale
 70
     0
300
1:5
140
1.0
141
5.0
290
     0
  0
SCALE
  5
31C5
102
{ACAD_REACTORS
330
31C0
102
}
330
31C0
100
AcDbScale
 70
     0
300
1:8
140
1.0
141
8.0
290
     0
  0
SCALE
  5
31C6
102
{ACAD_REACTORS
330
31C0
102
}
330
31C0
100
AcDbScale
 70
     0
300
1:10
140
1.0
141
10.0
290
     0
  0
SCALE
  5
31C7
102
{ACAD_REACTORS
330
31C0
102
}
330
31C0
100
AcDbScale
 70
     0
300
1:16
140
1.0
141
16.0
290
     0
  0
SCALE
  5
31C8
102
{ACAD_REACTORS
330
31C0
102
}
330
31C0
100
AcDbScale
 70
     0
300
1:20
140
1.0
141
20.0
290
     0
  0
SCALE
  5
31C9
102
{ACAD_REACTORS
330
31C0
102
}
330
31C0
100
AcDbScale
 70
     0
300
1:30
140
1.0
141
30.0
290
     0
  0
SCALE
  5
31CA
102
{ACAD_REACTORS
330
31C0
102
}
330
31C0
100
AcDbScale
 70
     0
300
1:40
140
1.0
141
40.0
290
     0
  0
SCALE
  5
31CB
102
{ACAD_REACTORS
330
31C0
102
}
330
31C0
100
AcDbScale
 70
     0
300
1:50
140
1.0
141
50.0
290
     0
  0
SCALE
  5
31CC
102
{ACAD_REACTORS
330
31C0
102
}
330
31C0
100
AcDbScale
 70
     0
300
1:100
140
1.0
141
100.0
290
     0
  0
SCALE
  5
31CD
102
{ACAD_REACTORS
330
31C0
102
}
330
31C0
100
AcDbScale
 70
     0
300
2:1
140
2.0
141
1.0
290
     0
  0
SCALE
  5
31CE
102
{ACAD_REACTORS
330
31C0
102
}
330
31C0
100
AcDbScale
 70
     0
300
4:1
140
4.0
141
1.0
290
     0
  0
SCALE
  5
31CF
102
{ACAD_REACTORS
330
31C0
102
}
330
31C0
100
AcDbScale
 70
     0
300
8:1
140
8.0
141
1.0
290
     0
  0
SCALE
  5
31D0
102
{ACAD_REACTORS
330
31C0
102
}
330
31C0
100
AcDbScale
 70
     0
300
10:1
140
10.0
141
1.0
290
     0
  0
SCALE
  5
31D1
102
{ACAD_REACTORS
330
31C0
102
}
330
31C0
100
AcDbScale
 70
     0
300
100:1
140
100.0
141
1.0
290
     0
  0
SCALE
  5
31D2
102
{ACAD_REACTORS
330
31C0
102
}
330
31C0
100
AcDbScale
 70
     0
300
1/128" = 1'-0"
140
0.0078125
141
12.0
290
     0
  0
SCALE
  5
31D3
102
{ACAD_REACTORS
330
31C0
102
}
330
31C0
100
AcDbScale
 70
     0
300
1/64" = 1'-0"
140
0.015625
141
12.0
290
     0
  0
SCALE
  5
31D4
102
{ACAD_REACTORS
330
31C0
102
}
330
31C0
100
AcDbScale
 70
     0
300
1/32" = 1'-0"
140
0.03125
141
12.0
290
     0
  0
SCALE
  5
31D5
102
{ACAD_REACTORS
330
31C0
102
}
330
31C0
100
AcDbScale
 70
     0
300
1/16" = 1'-0"
140
0.0625
141
12.0
290
     0
  0
SCALE
  5
31D6
102
{ACAD_REACTORS
330
31C0
102
}
330
31C0
100
AcDbScale
 70
     0
300
3/32" = 1'-0"
140
0.09375
141
12.0
290
     0
  0
SCALE
  5
31D7
102
{ACAD_REACTORS
330
31C0
102
}
330
31C0
100
AcDbScale
 70
     0
300
1/8" = 1'-0"
140
0.125
141
12.0
290
     0
  0
SCALE
  5
31D8
102
{ACAD_REACTORS
330
31C0
102
}
330
31C0
100
AcDbScale
 70
     0
300
3/16" = 1'-0"
140
0.1875
141
12.0
290
     0
  0
SCALE
  5
31D9
102
{ACAD_REACTORS
330
31C0
102
}
330
31C0
100
AcDbScale
 70
     0
300
1/4" = 1'-0"
140
0.25
141
12.0
290
     0
  0
SCALE
  5
31DA
102
{ACAD_REACTORS
330
31C0
102
}
330
31C0
100
AcDbScale
 70
     0
300
3/8" = 1'-0"
140
0.375
141
12.0
290
     0
  0
SCALE
  5
31DB
102
{ACAD_REACTORS
330
31C0
102
}
330
31C0
100
AcDbScale
 70
     0
300
1/2" = 1'-0"
140
0.5
141
12.0
290
     0
  0
SCALE
  5
31DC
102
{ACAD_REACTORS
330
31C0
102
}
330
31C0
100
AcDbScale
 70
     0
300
3/4" = 1'-0"
140
0.75
141
12.0
290
     0
  0
SCALE
  5
31DD
102
{ACAD_REACTORS
330
31C0
102
}
330
31C0
100
AcDbScale
 70
     0
300
1" = 1'-0"
140
1.0
141
12.0
290
     0
  0
SCALE
  5
31DE
102
{ACAD_REACTORS
330
31C0
102
}
330
31C0
100
AcDbScale
 70
     0
300
1-1/2" = 1'-0"
140
1.5
141
12.0
290
     0
  0
SCALE
  5
31DF
102
{ACAD_REACTORS
330
31C0
102
}
330
31C0
100
AcDbScale
 70
     0
300
3" = 1'-0"
140
3.0
141
12.0
290
     0
  0
SCALE
  5
31E0
102
{ACAD_REACTORS
330
31C0
102
}
330
31C0
100
AcDbScale
 70
     0
300
6" = 1'-0"
140
6.0
141
12.0
290
     0
  0
SCALE
  5
31E1
102
{ACAD_REACTORS
330
31C0
102
}
330
31C0
100
AcDbScale
 70
     0
300
1'-0" = 1'-0"
140
12.0
141
12.0
290
     0
  0
ACDBSECTIONVIEWSTYLE
  5
3242
102
{ACAD_REACTORS
330
3241
102
}
102
{ACAD_XDICTIONARY
360
6A8C
102
}
330
3241
100
AcDbModelDocViewStyle
 70
     0
  3
Metric50
290
     0
100
AcDbSectionViewStyle
 70
     0
 71
     0
 90
      102
 71
     1
340
11
 40
5.0
340
0
340
0
 40
5.0
300
I, O, Q, S, X, Z
 40
10.0
 90
        0
 40
2.5
 90
        0
 71
     2
340
16
 90
       25
340
16
 90
       50
 40
5.0
 40
2.5
 40
5.0
 71
     3
340
11
 40
5.0
 90
        0
 40
15.0
 90
        1
300
%<\AcVar ViewSectionStartId>%-%<\AcVar ViewSectionEndId>% (%<\AcVar ViewScale \f "%sn">%)
 71
     4
300
ANSI31
 40
1.0
 90
        0
290
     0
290
     0
 90
        6
 40
0.0
 40
1.570796326794896
 40
0.2617993877991494
 40
1.308996938995747
 40
-0.2617993877991494
 40
1.832595714594045
  0
DICTIONARYVAR
  5
69F0
102
{ACAD_REACTORS
330
3319
102
}
330
3319
100
DictionaryVariables
280
     0
  1
1
  0
DICTIONARYVAR
  5
69EF
102
{ACAD_REACTORS
330
3319
102
}
330
3319
100
DictionaryVariables
280
     0
  1
0
  0
DICTIONARYVAR
  5
69EE
102
{ACAD_REACTORS
330
3319
102
}
330
3319
100
DictionaryVariables
280
     0
  1
127
  0
ACDBASSOCNETWORK
  5
33DA
102
{ACAD_REACTORS
330
33D9
102
}
330
33D9
100
AcDbAssocAction
 90
        1
 90
        1
330
33DC
360
0
 90
        1
 90
        0
 90
        0
100
AcDbAssocNetwork
 90
        0
 90
        2
 90
        1
360
69C4
 90
        1
330
69C4
  0
DICTIONARY
  5
6A8E
330
3244
100
AcDbDictionary
280
     1
281
     1
  3
ACAD_XREC_ROUNDTRIP
360
6A8F
  0
DICTIONARY
  5
6A8C
330
3242
100
AcDbDictionary
280
     1
281
     1
  3
ACAD_XREC_ROUNDTRIP
360
6A8D
  0
ACDBASSOCACTION
  5
69C4
330
33DA
100
AcDbAssocAction
 90
        1
 90
        1
330
33DA
360
69C5
 90
        2
 90
        3
 90
        3
360
69C8
360
69C9
360
69CA
  0
XRECORD
  5
6A8F
102
{ACAD_REACTORS
330
6A8E
102
}
330
6A8E
100
AcDbXrecord
280
     1
102
DISPLAYNAME
  1
Metric50
102
FLAGS
 90
        0
  0
XRECORD
  5
6A8D
102
{ACAD_REACTORS
330
6A8C
102
}
330
6A8C
100
AcDbXrecord
280
     1
102
DISPLAYNAME
  1
Metric50
102
FLAGS
 90
        0
  0
ACDBASSOCARRAYACTIONBODY
  5
69C5
330
69C4
100
AcDbAssocActionBody
 90
        1
100
AcDbAssocParamBasedActionBody
 90
        0
 90
        0
 90
        3
360
69C6
360
69C7
360
69CB
 90
        0
 90
       10
 90
        0
  1
FillAngle
 90
        2
 90
        1
 40
6.283185307179585
330
0
330
0
 90
        0
  1
ItemSpacing
 90
        2
 90
        1
 40
0.3926990816987241
330
0
330
0
 90
        0
  1
Items
 90
        0
 90
        1
 90
       16
330
0
330
0
 90
        0
  1
LevelSpacing
 90
        1
 90
        1
 40
1.0
330
0
330
0
 90
        0
  1
Levels
 90
        0
 90
        1
 90
        1
330
0
330
0
 90
        0
  1
RowElevation
 90
        1
 90
        1
 40
0.0
330
0
330
0
 90
        0
  1
RowSpacing
 90
        1
 90
        1
 40
12.00000002999968
330
0
330
0
 90
        0
  1
Rows
 90
        0
 90
        1
 90
        1
330
0
330
0
 90
        0
  1
Radius
 90
        1
 90
        1
 40
429.9999999999998
330
0
330
0
 90
        0
  1
StartAngle
 90
        2
 90
        1
 40
0.1963495408493626
330
0
330
0
100
AcDbAssocArrayActionBody
 90
        1
  1
AcDbAssocArrayPolarParameters
 90
        0
 90
       16
  1
AcDbAssocArrayItem
100
AcDbAssocArrayItem
 90
        0
 90
        0
 90
        0
 90
        0
 90
        8
 11
1708.194700488486
 21
2815.452154575304
 31
0.0
330
69CD
100
AcDbAssocArrayItem
 90
        0
 90
        1
 90
        0
 90
        0
 90
       12
 40
0.9238795325112867
 40
-0.38268343236509
 40
0.0
 40
1643.988963205191
 40
0.3826834323650898
 40
0.9238795325112867
 40
0.0
 40
2970.458516306798
 40
0.0
 40
0.0
 40
1.0
 40
0.0
 40
0.0
 40
0.0
 40
0.0
 40
1.0
330
69CE
100
AcDbAssocArrayItem
 90
        0
 90
        2
 90
        0
 90
        0
 90
       12
 40
0.7071067811865479
 40
-0.7071067811865479
 40
0.0
 40
1525.352230113526
 40
0.7071067811865479
 40
0.7071067811865475
 40
0.0
 40
3089.095249398463
 40
0.0
 40
0.0
 40
1.0
 40
0.0
 40
0.0
 40
0.0
 40
0.0
 40
1.0
330
69CF
100
AcDbAssocArrayItem
 90
        0
 90
        3
 90
        0
 90
        0
 90
       12
 40
0.3826834323650901
 40
-0.9238795325112867
 40
0.0
 40
1370.345868382032
 40
0.9238795325112867
 40
0.3826834323650897
 40
0.0
 40
3153.300986681758
 40
0.0
 40
0.0
 40
1.0
 40
0.0
 40
0.0
 40
0.0
 40
0.0
 40
1.0
330
69D0
100
AcDbAssocArrayItem
 90
        0
 90
        4
 90
        0
 90
        0
 90
       12
 40
0.0000000000000005
 40
-1.0
 40
0.0
 40
1202.568191448162
 40
1.0
 40
0.0
 40
0.0
 40
3153.300986681758
 40
0.0
 40
0.0
 40
1.0
 40
0.0
 40
0.0
 40
0.0
 40
0.0
 40
1.0
330
69D1
100
AcDbAssocArrayItem
 90
        0
 90
        5
 90
        0
 90
        0
 90
       12
 40
-0.3826834323650892
 40
-0.9238795325112864
 40
0.0
 40
1047.561829716668
 40
0.9238795325112867
 40
-0.38268343236509
 40
0.0
 40
3089.095249398463
 40
0.0
 40
0.0
 40
0.9999999999999998
 40
0.0
 40
0.0
 40
0.0
 40
0.0
 40
1.0
330
69D2
100
AcDbAssocArrayItem
 90
        0
 90
        6
 90
        0
 90
        0
 90
       12
 40
-0.7071067811865474
 40
-0.7071067811865474
 40
0.0
 40
928.9250966250024
 40
0.7071067811865479
 40
-0.7071067811865476
 40
0.0
 40
2970.458516306798
 40
0.0
 40
0.0
 40
1.0
 40
0.0
 40
0.0
 40
0.0
 40
0.0
 40
1.0
330
69D3
100
AcDbAssocArrayItem
 90
        0
 90
        7
 90
        0
 90
        0
 90
       12
 40
-0.9238795325112867
 40
-0.3826834323650901
 40
0.0
 40
864.7193593417082
 40
0.3826834323650905
 40
-0.9238795325112866
 40
0.0
 40
2815.452154575304
 40
0.0
 40
0.0
 40
1.0
 40
0.0
 40
0.0
 40
0.0
 40
0.0
 40
1.0
330
69D4
100
AcDbAssocArrayItem
 90
        0
 90
        8
 90
        0
 90
        0
 90
       12
 40
-1.0
 40
0.0000000000000002
 40
0.0
 40
864.7193593417082
 40
0.0
 40
-1.0
 40
0.0
 40
2647.674477641434
 40
0.0
 40
0.0
 40
1.0
 40
0.0
 40
0.0
 40
0.0
 40
0.0
 40
1.0
330
69D5
100
AcDbAssocArrayItem
 90
        0
 90
        9
 90
        0
 90
        0
 90
       12
 40
-0.9238795325112864
 40
0.3826834323650904
 40
0.0
 40
928.9250966250031
 40
-0.3826834323650904
 40
-0.9238795325112864
 40
0.0
 40
2492.668115909939
 40
0.0
 40
0.0
 40
1.0
 40
0.0
 40
0.0
 40
0.0
 40
0.0
 40
1.0
330
69D6
100
AcDbAssocArrayItem
 90
        0
 90
       10
 90
        0
 90
        0
 90
       12
 40
-0.7071067811865479
 40
0.7071067811865474
 40
0.0
 40
1047.561829716668
 40
-0.7071067811865472
 40
-0.7071067811865479
 40
0.0
 40
2374.031382818274
 40
0.0
 40
0.0
 40
1.0
 40
0.0
 40
0.0
 40
0.0
 40
0.0
 40
1.0
330
69D7
100
AcDbAssocArrayItem
 90
        0
 90
       11
 90
        0
 90
        0
 90
       12
 40
-0.3826834323650913
 40
0.9238795325112862
 40
0.0
 40
1202.568191448162
 40
-0.9238795325112864
 40
-0.3826834323650905
 40
0.0
 40
2309.82564553498
 40
0.0
 40
0.0
 40
1.0
 40
0.0
 40
0.0
 40
0.0
 40
0.0
 40
1.0
330
69D8
100
AcDbAssocArrayItem
 90
        0
 90
       12
 90
        0
 90
        0
 90
       12
 40
-0.0000000000000016
 40
0.9999999999999998
 40
0.0
 40
1370.345868382032
 40
-1.0
 40
-0.0000000000000004
 40
0.0
 40
2309.82564553498
 40
0.0
 40
0.0
 40
1.0
 40
0.0
 40
0.0
 40
0.0
 40
0.0
 40
1.0
330
69D9
100
AcDbAssocArrayItem
 90
        0
 90
       13
 90
        0
 90
        0
 90
       12
 40
0.3826834323650889
 40
0.9238795325112866
 40
0.0
 40
1525.352230113526
 40
-0.9238795325112876
 40
0.3826834323650897
 40
0.0
 40
2374.031382818275
 40
0.0
 40
0.0
 40
1.0
 40
0.0
 40
0.0
 40
0.0
 40
0.0
 40
1.0
330
69DA
100
AcDbAssocArrayItem
 90
        0
 90
       14
 90
        0
 90
        0
 90
       12
 40
0.7071067811865457
 40
0.7071067811865483
 40
0.0
 40
1643.988963205191
 40
-0.7071067811865499
 40
0.7071067811865464
 40
0.0
 40
2492.66811590994
 40
0.0
 40
0.0
 40
1.0
 40
0.0
 40
0.0
 40
0.0
 40
0.0
 40
1.0
330
69DB
100
AcDbAssocArrayItem
 90
        0
 90
       15
 90
        0
 90
        0
 90
       12
 40
0.9238795325112862
 40
0.3826834323650905
 40
0.0
 40
1708.194700488486
 40
-0.3826834323650923
 40
0.9238795325112862
 40
0.0
 40
2647.674477641434
 40
0.0
 40
0.0
 40
1.0
 40
0.0
 40
0.0
 40
0.0
 40
0.0
 40
1.0
330
69DC
 40
1.0
 40
0.0
 40
0.0
 40
0.0
 40
0.0
 40
1.0
 40
0.0
 40
0.0
 40
0.0
 40
0.0
 40
1.0
 40
0.0
 40
0.0
 40
0.0
 40
0.0
 40
1.0
  0
ACDBASSOCDEPENDENCY
  5
69C8
330
69C4
100
AcDbAssocDependency
 90
        2
 90
        1
290
     0
290
     1
290
     1
290
     1
 90
        0
330
69BE
290
     0
330
0
330
0
360
0
 90
        1
  0
ACDBASSOCDEPENDENCY
  5
69C9
330
69C4
100
AcDbAssocDependency
 90
        2
 90
        1
290
     1
290
     0
290
     1
290
     1
 90
        0
330
69BB
290
     0
330
0
330
0
360
0
 90
        2
  0
ACDBASSOCDEPENDENCY
  5
69CA
330
69C4
100
AcDbAssocDependency
 90
        2
 90
        0
290
     1
290
     1
290
     1
290
     1
 90
-2147483648
330
69C1
290
     0
330
0
330
0
360
0
 90
        3
  0
ACDBASSOCVERTEXACTIONPARAM
  5
69C6
330
69C5
100
AcDbAssocActionParam
 90
        0
  1
BaseNormal
100
AcDbAssocSingleDependencyActionParam
 90
        0
330
0
100
AcDbAssocVertexActionParam
 90
        0
 10
0.0
 20
0.0
 30
1.0
  0
ACDBASSOCVERTEXACTIONPARAM
  5
69C7
330
69C5
100
AcDbAssocActionParam
 90
        0
  1
Origin
100
AcDbAssocSingleDependencyActionParam
 90
        0
330
0
100
AcDbAssocVertexActionParam
 90
        0
 10
1286.457029915097
 20
2731.563316108369
 30
0.0
  0
ACDBASSOCVERTEXACTIONPARAM
  5
69CB
330
69C5
100
AcDbAssocActionParam
 90
        0
  1
basePoint
100
AcDbAssocSingleDependencyActionParam
 90
        0
330
0
100
AcDbAssocVertexActionParam
 90
        0
 10
0.0
 20
0.0
 30
0.0
  0
ENDSEC
  0
EOF
