999
DXF file: q:\proe_zeichnungen\Rohrluefter_RVK_PrioAir_etc\RVK\RVK_Aufb_aktuelle_stp_Kindtner\dxf_u_pdf_Dateien\rvk100_sileo_kpl.dxf
999
Pro/ENGINEER 2015080 by Parametric Technology Corporation
  0
SECTION
  2
HEADER
  9
$ACADVER
  1
AC1027
  9
$DWGCODEPAGE
  3
ANSI_1252
  9
$EXTMAX
 10
297.0
 20
210.0
 30
0.0
  9
$EXTMIN
 10
0.0
 20
0.0
 30
0.0
  9
$LIMMIN
 10
0.0
 20
0.0
  9
$LIMMAX
 10
297.0
 20
210.0
  9
$VIEWCTR
 10
148.5
 20
105.0
  9
$VIEWSIZE
 40
210.0
  9
$CLAYER
  8
0
  9
$LTSCALE
 40
16.335
  9
$CELTYPE
  6
BYLAYER
  9
$DIMSCALE
 40
1.0
  9
$DIMASZ
 40
3.5
  9
$DIMEXO
 40
1.5
  9
$DIMDLI
 40
11.286
  9
$DIMEXE
 40
1.5
  9
$DIMCEN
 40
2.673
  9
$DIMLFAC
 40
1.0
  9
$DIMBLK
  1
_FILLED
  9
$DIMALT
 70
0
  9
$DIMALTF
 40
0.0393700787
  9
$DIMTXT
 40
3.5
  9
$DIMTOL
 70
1
  9
$DIMLIM
 70
0
  9
$DIMTFAC
 40
1.0
  9
$DIMTP
 40
0.005
  9
$DIMTM
 40
0.005
  9
$DIMGAP
 40
0.625
  9
$DIMDSEP
 70
46
  9
$AUNITS
 70
0
  9
$PDMODE
 70
3
  9
$PDSIZE
 40
0.3125
  9
$HANDSEED
  5
376
  9
$TILEMODE
 70
1
  9
$MEASUREMENT
 70
1
  9
$INSUNITS
 70
4
  0
ENDSEC
  0
SECTION
  2
CLASSES
  0
CLASS
  1
ACDBDICTIONARYWDFLT
  2
AcDbDictionaryWithDefault
  3
AutoCAD 2000
 90
0
 91
1
280
0
281
0
  0
CLASS
  1
ACDBPLACEHOLDER
  2
AcDbPlaceHolder
  3
AutoCAD 2000
 90
0
 91
1
280
0
281
0
  0
CLASS
  1
LAYOUT
  2
AcDbLayout
  3
AutoCAD 2000
 90
0
 91
0
280
0
281
0
  0
ENDSEC
  0
SECTION
  2
TABLES
  0
TABLE
  2
VPORT
  5
8
100
AcDbSymbolTable
 70
2
  0
VPORT
  5
1F4
100
AcDbSymbolTableRecord
100
AcDbViewportTableRecord
  2
*ACTIVE
 70
0
 10
0.0
 20
0.0
 11
1.0
 21
1.0
 12
148.5
 22
105.0
 13
0.0
 23
0.0
 14
1.0
 24
1.0
 15
0.0
 25
0.0
 16
0.0
 26
0.0
 36
1.0
 17
0.0
 27
0.0
 37
0.0
 40
210.0
 41
1.4142857143
 42
50.0
 43
0.0
 44
0.0
 50
0.0
 51
0.0
 71
0
 72
100
 73
1
 74
1
 75
0
 76
0
 77
0
 78
0
  0
ENDTAB
  0
TABLE
  2
LTYPE
  5
5
100
AcDbSymbolTable
 70
6
  0
LTYPE
  5
14
100
AcDbSymbolTableRecord
100
AcDbLinetypeTableRecord
  2
BYBLOCK
 70
0
  3

 72
65
 73
0
 40
0.0
  0
LTYPE
  5
15
100
AcDbSymbolTableRecord
100
AcDbLinetypeTableRecord
  2
BYLAYER
 70
0
  3

 72
65
 73
0
 40
0.0
  0
LTYPE
  5
16
100
AcDbSymbolTableRecord
100
AcDbLinetypeTableRecord
  2
CONTINUOUS
 70
64
  3
Solid line
 72
65
 73
0
 40
0.0
  0
LTYPE
  5
1F5
100
AcDbSymbolTableRecord
100
AcDbLinetypeTableRecord
  2
CENTER
 70
64
  3
____ _ ____ _ ____ _ ____ _ ____ _ ____ _ ____
 72
65
 73
4
 40
0.6
 49
0.375
 74
0
 49
-0.075
 74
0
 49
0.075
 74
0
 49
-0.075
 74
0
  0
LTYPE
  5
1F6
100
AcDbSymbolTableRecord
100
AcDbLinetypeTableRecord
  2
HIDDEN
 70
64
  3
- - - - - - - - - - - - - - - - - - - -
 72
65
 73
2
 40
0.2
 49
0.1
 74
0
 49
-0.1
 74
0
  0
LTYPE
  5
1F7
100
AcDbSymbolTableRecord
100
AcDbLinetypeTableRecord
  2
PHANTOM
 70
64
  3
_____ _ _ _____ _ _ _____ _ _ _____
 72
65
 73
6
 40
0.8
 49
0.45
 74
0
 49
-0.05
 74
0
 49
0.1
 74
0
 49
-0.05
 74
0
 49
0.1
 74
0
 49
-0.05
 74
0
  0
LTYPE
  5
1F8
100
AcDbSymbolTableRecord
100
AcDbLinetypeTableRecord
  2
DOT
 70
64
  3
. . . . . . . . . . . . . . . . . . . .
 72
65
 73
2
 40
0.2
 49
0.1
 74
0
 49
-0.1
 74
0
  0
LTYPE
  5
1F9
100
AcDbSymbolTableRecord
100
AcDbLinetypeTableRecord
  2
DASHED
 70
64
  3
- - - - - - - - - - - - - - - - - - - -
 72
65
 73
2
 40
0.2
 49
0.1
 74
0
 49
-0.1
 74
0
  0
ENDTAB
  0
TABLE
  2
LAYER
  5
2
100
AcDbSymbolTable
 70
36
  0
LAYER
  5
10
100
AcDbSymbolTableRecord
100
AcDbLayerTableRecord
  2
0
 70
0
 62
7
  6
CONTINUOUS
370
-3
390
F
  0
LAYER
  5
1FA
100
AcDbSymbolTableRecord
100
AcDbLayerTableRecord
  2
DEFAULT_1
 70
0
 62
7
  6
CENTER
370
-3
390
F
  0
LAYER
  5
1FB
100
AcDbSymbolTableRecord
100
AcDbLayerTableRecord
  2
DEFAULT_2
 70
0
 62
8
  6
HIDDEN
370
-3
390
F
  0
LAYER
  5
1FC
100
AcDbSymbolTableRecord
100
AcDbLayerTableRecord
  2
DEFAULT_3
 70
0
 62
7
  6
PHANTOM
370
-3
390
F
  0
LAYER
  5
1FD
100
AcDbSymbolTableRecord
100
AcDbLayerTableRecord
  2
01_ALL_DTM_PLN
 70
0
 62
7
  6
CONTINUOUS
370
-3
390
F
  0
LAYER
  5
1FE
100
AcDbSymbolTableRecord
100
AcDbLayerTableRecord
  2
01__ASM_ALL_DTM_PLN
 70
0
 62
7
  6
CONTINUOUS
370
-3
390
F
  0
LAYER
  5
1FF
100
AcDbSymbolTableRecord
100
AcDbLayerTableRecord
  2
01__ASM_DEF_DTM_PLN
 70
0
 62
7
  6
CONTINUOUS
370
-3
390
F
  0
LAYER
  5
200
100
AcDbSymbolTableRecord
100
AcDbLayerTableRecord
  2
01___PRT_ALL_DTM_PLN
 70
0
 62
7
  6
CONTINUOUS
370
-3
390
F
  0
LAYER
  5
201
100
AcDbSymbolTableRecord
100
AcDbLayerTableRecord
  2
01___PRT_DEF_DTM_PLN
 70
0
 62
7
  6
CONTINUOUS
370
-3
390
F
  0
LAYER
  5
202
100
AcDbSymbolTableRecord
100
AcDbLayerTableRecord
  2
02_ALL_AXES
 70
0
 62
7
  6
CONTINUOUS
370
-3
390
F
  0
LAYER
  5
203
100
AcDbSymbolTableRecord
100
AcDbLayerTableRecord
  2
02__ASM_ALL_AXES
 70
0
 62
7
  6
CONTINUOUS
370
-3
390
F
  0
LAYER
  5
204
100
AcDbSymbolTableRecord
100
AcDbLayerTableRecord
  2
02___PRT_ALL_AXES
 70
0
 62
7
  6
CONTINUOUS
370
-3
390
F
  0
LAYER
  5
205
100
AcDbSymbolTableRecord
100
AcDbLayerTableRecord
  2
03_ALL_CURVES
 70
0
 62
7
  6
CONTINUOUS
370
-3
390
F
  0
LAYER
  5
206
100
AcDbSymbolTableRecord
100
AcDbLayerTableRecord
  2
03__ASM_ALL_CURVES
 70
0
 62
7
  6
CONTINUOUS
370
-3
390
F
  0
LAYER
  5
207
100
AcDbSymbolTableRecord
100
AcDbLayerTableRecord
  2
03___PRT_ALL_CURVES
 70
0
 62
7
  6
CONTINUOUS
370
-3
390
F
  0
LAYER
  5
208
100
AcDbSymbolTableRecord
100
AcDbLayerTableRecord
  2
04_ALL_DTM_PNT
 70
0
 62
7
  6
CONTINUOUS
370
-3
390
F
  0
LAYER
  5
209
100
AcDbSymbolTableRecord
100
AcDbLayerTableRecord
  2
04__ASM_ALL_DTM_PNT
 70
0
 62
7
  6
CONTINUOUS
370
-3
390
F
  0
LAYER
  5
20A
100
AcDbSymbolTableRecord
100
AcDbLayerTableRecord
  2
04___PRT_ALL_DTM_PNT
 70
0
 62
7
  6
CONTINUOUS
370
-3
390
F
  0
LAYER
  5
20B
100
AcDbSymbolTableRecord
100
AcDbLayerTableRecord
  2
05_ALL_DTM_CSYS
 70
0
 62
7
  6
CONTINUOUS
370
-3
390
F
  0
LAYER
  5
20C
100
AcDbSymbolTableRecord
100
AcDbLayerTableRecord
  2
05__ASM_ALL_DTM_CSYS
 70
0
 62
7
  6
CONTINUOUS
370
-3
390
F
  0
LAYER
  5
20D
100
AcDbSymbolTableRecord
100
AcDbLayerTableRecord
  2
05__ASM_DEF_DTM_CSYS
 70
0
 62
7
  6
CONTINUOUS
370
-3
390
F
  0
LAYER
  5
20E
100
AcDbSymbolTableRecord
100
AcDbLayerTableRecord
  2
05___PRT_ALL_DTM_CSYS
 70
0
 62
7
  6
CONTINUOUS
370
-3
390
F
  0
LAYER
  5
20F
100
AcDbSymbolTableRecord
100
AcDbLayerTableRecord
  2
05___PRT_DEF_DTM_CSYS
 70
0
 62
7
  6
CONTINUOUS
370
-3
390
F
  0
LAYER
  5
210
100
AcDbSymbolTableRecord
100
AcDbLayerTableRecord
  2
06_ALL_SURFS
 70
0
 62
7
  6
CONTINUOUS
370
-3
390
F
  0
LAYER
  5
211
100
AcDbSymbolTableRecord
100
AcDbLayerTableRecord
  2
06__ASM_ALL_SURFS
 70
0
 62
7
  6
CONTINUOUS
370
-3
390
F
  0
LAYER
  5
212
100
AcDbSymbolTableRecord
100
AcDbLayerTableRecord
  2
06___PRT_ALL_SURFS
 70
0
 62
7
  6
CONTINUOUS
370
-3
390
F
  0
LAYER
  5
213
100
AcDbSymbolTableRecord
100
AcDbLayerTableRecord
  2
07__ASM_ALL_SKELETONS
 70
0
 62
7
  6
CONTINUOUS
370
-3
390
F
  0
LAYER
  5
214
100
AcDbSymbolTableRecord
100
AcDbLayerTableRecord
  2
1_ALL_PLANES
 70
0
 62
7
  6
CONTINUOUS
370
-3
390
F
  0
LAYER
  5
215
100
AcDbSymbolTableRecord
100
AcDbLayerTableRecord
  2
1__DEF_PLANES
 70
0
 62
7
  6
CONTINUOUS
370
-3
390
F
  0
LAYER
  5
216
100
AcDbSymbolTableRecord
100
AcDbLayerTableRecord
  2
2_ALL_CSYS
 70
0
 62
7
  6
CONTINUOUS
370
-3
390
F
  0
LAYER
  5
217
100
AcDbSymbolTableRecord
100
AcDbLayerTableRecord
  2
2__DEF_CSYS
 70
0
 62
7
  6
CONTINUOUS
370
-3
390
F
  0
LAYER
  5
218
100
AcDbSymbolTableRecord
100
AcDbLayerTableRecord
  2
3_ALL_AXIS
 70
0
 62
7
  6
CONTINUOUS
370
-3
390
F
  0
LAYER
  5
219
100
AcDbSymbolTableRecord
100
AcDbLayerTableRecord
  2
7_ALL_FEATURES
 70
0
 62
7
  6
CONTINUOUS
370
-3
390
F
  0
LAYER
  5
21A
100
AcDbSymbolTableRecord
100
AcDbLayerTableRecord
  2
A_ACHSEN
 70
0
 62
7
  6
CONTINUOUS
370
-3
390
F
  0
LAYER
  5
21B
100
AcDbSymbolTableRecord
100
AcDbLayerTableRecord
  2
A_EBENEN
 70
0
 62
7
  6
CONTINUOUS
370
-3
390
F
  0
LAYER
  5
21C
100
AcDbSymbolTableRecord
100
AcDbLayerTableRecord
  2
BEZUGSACHSEN
 70
0
 62
7
  6
CONTINUOUS
370
-3
390
F
  0
LAYER
  5
21D
100
AcDbSymbolTableRecord
100
AcDbLayerTableRecord
  2
BEZUGSEBENEN
 70
0
 62
7
  6
CONTINUOUS
370
-3
390
F
  0
LAYER
  5
21E
100
AcDbSymbolTableRecord
100
AcDbLayerTableRecord
  2
BOHRUNGEN
 70
0
 62
7
  6
CONTINUOUS
370
-3
390
F
  0
LAYER
  5
21F
100
AcDbSymbolTableRecord
100
AcDbLayerTableRecord
  2
FASEN
 70
0
 62
7
  6
CONTINUOUS
370
-3
390
F
  0
LAYER
  5
220
100
AcDbSymbolTableRecord
100
AcDbLayerTableRecord
  2
GEWINDE
 70
0
 62
7
  6
CONTINUOUS
370
-3
390
F
  0
LAYER
  5
221
100
AcDbSymbolTableRecord
100
AcDbLayerTableRecord
  2
HILFEN
 70
0
 62
7
  6
CONTINUOUS
370
-3
390
F
  0
LAYER
  5
222
100
AcDbSymbolTableRecord
100
AcDbLayerTableRecord
  2
KURVOR
 70
0
 62
7
  6
CONTINUOUS
370
-3
390
F
  0
LAYER
  5
223
100
AcDbSymbolTableRecord
100
AcDbLayerTableRecord
  2
PLATZIERUNG
 70
0
 62
7
  6
CONTINUOUS
370
-3
390
F
  0
LAYER
  5
224
100
AcDbSymbolTableRecord
100
AcDbLayerTableRecord
  2
RUNDUNGEN
 70
0
 62
7
  6
CONTINUOUS
370
-3
390
F
  0
LAYER
  5
225
100
AcDbSymbolTableRecord
100
AcDbLayerTableRecord
  2
TEIL_STARTBEZUEGE
 70
0
 62
7
  6
CONTINUOUS
370
-3
390
F
  0
LAYER
  5
226
100
AcDbSymbolTableRecord
100
AcDbLayerTableRecord
  2
T_STARTBEZUEGE
 70
0
 62
7
  6
CONTINUOUS
370
-3
390
F
  0
LAYER
  5
227
100
AcDbSymbolTableRecord
100
AcDbLayerTableRecord
  2
XSEC_DATUMS
 70
0
 62
7
  6
CONTINUOUS
370
-3
390
F
  0
LAYER
  5
228
100
AcDbSymbolTableRecord
100
AcDbLayerTableRecord
  2
ZEICHNUNGSBEMASSUNGEN
 70
0
 62
7
  6
CONTINUOUS
370
-3
390
F
  0
ENDTAB
  0
TABLE
  2
STYLE
  5
3
100
AcDbSymbolTable
 70
1
  0
STYLE
  5
11
100
AcDbSymbolTableRecord
100
AcDbTextStyleTableRecord
  2
STANDARD
 70
0
 40
0.0
 41
0.7
 50
0.0
 71
0
 42
0.2
  3
txt
  4

  0
STYLE
  5
229
100
AcDbSymbolTableRecord
100
AcDbTextStyleTableRecord
  2
TEXTSTYLE_1
 70
0
 40
0.0
 41
0.8
 50
0.0
 71
0
 42
0.2
  3
gdt
  4

  0
ENDTAB
  0
TABLE
  2
VIEW
  5
6
100
AcDbSymbolTable
 70
0
  0
ENDTAB
  0
TABLE
  2
UCS
  5
7
100
AcDbSymbolTable
 70
0
  0
ENDTAB
  0
TABLE
  2
APPID
  5
9
100
AcDbSymbolTable
 70
1
  0
APPID
  5
22A
100
AcDbSymbolTableRecord
100
AcDbRegAppTableRecord
  2
ACAD
 70
0
  0
ENDTAB
  0
TABLE
  2
BLOCK_RECORD
  5
1
100
AcDbSymbolTable
 70
0
  0
BLOCK_RECORD
  5
22B
100
AcDbSymbolTableRecord
100
AcDbBlockTableRecord
  2
*Model_Space
  0
BLOCK_RECORD
  5
22C
100
AcDbSymbolTableRecord
100
AcDbBlockTableRecord
  2
*Paper_Space
  0
ENDTAB
  0
TABLE
  2
DIMSTYLE
  5
A
100
AcDbSymbolTable
 70
1
100
AcDbDimStyleTable
 71
0
  0
DIMSTYLE
105
22D
100
AcDbSymbolTableRecord
100
AcDbDimStyleTableRecord
  2
STANDARD
 70
0
  3

  4

 40
1.0
 41
3.5
 42
1.5
 43
0.38
 44
1.5
 45
0.0
 46
0.0
 47
0.005
 48
0.005
140
3.5
141
0.09
142
0.0
143
25.4
144
1.0
145
0.0
146
1.0
147
0.625
 71
1.0
 72
0.0
 73
0
 74
0
 75
0
 76
0
 77
1
 78
8
170
0
171
2
172
0
173
0
174
0
175
0
176
0
177
0
178
5
270
2
271
3
272
3
273
2
274
2
275
0
280
0
281
0
282
0
283
1
284
8
285
0
286
0
287
3
288
0
340
11
278
46
  0
ENDTAB
  0
ENDSEC
  0
SECTION
  2
BLOCKS
  0
BLOCK
  5
20
100
AcDbEntity
  8
0
100
AcDbBlockBegin
  2
*Model_Space
 70
0
 10
0.0
 20
0.0
 30
0.0
  3
*Model_Space
  1

  0
ENDBLK
  5
21
100
AcDbEntity
  8
0
100
AcDbBlockEnd
  0
BLOCK
  5
1C
100
AcDbEntity
  8
0
100
AcDbBlockBegin
  2
*Paper_Space
 70
0
 10
0.0
 20
0.0
 30
0.0
  3
*Paper_Space
  1

  0
ENDBLK
  5
1D
100
AcDbEntity
  8
0
100
AcDbBlockEnd
  0
ENDSEC
  0
SECTION
  2
ENTITIES
  0
MTEXT
  5
22E
100
AcDbEntity
  8
0
100
AcDbMText
 62
5
  6
CONTINUOUS
  7
STANDARD
 71
1
 72
1
 10
265.1371960591
 20
452.8998763113
 30
0.0
 11
1.0
 21
0.0
 31
0.0
 44
0.9
  1
RVK 100
 40
20.0
 41
160.0
  0
LINE
  5
22F
100
AcDbEntity
  8
0
100
AcDbLine
 62
7
  6
CONTINUOUS
 10
682.8877501486
 20
-1.3519857012
 11
707.0377501486
 21
-1.3519857012
  0
LINE
  5
230
100
AcDbEntity
  8
0
100
AcDbLine
 62
7
  6
CONTINUOUS
 10
484.6377501486
 20
79.1480930779
 11
484.6377501486
 21
178.1479355198
  0
LINE
  5
231
100
AcDbEntity
  8
0
100
AcDbLine
 62
7
  6
CONTINUOUS
 10
689.1377501486
 20
0.1480142988
 11
707.0377501486
 21
0.1480142988
  0
LINE
  5
232
100
AcDbEntity
  8
0
100
AcDbLine
 62
7
  6
CONTINUOUS
 10
620.6377501486
 20
3.1480142988
 11
598.1863687067
 21
3.1480142988
  0
LINE
  5
233
100
AcDbEntity
  8
0
100
AcDbLine
 62
9
  6
CONTINUOUS
 10
681.8877501486
 20
5.1480142988
 11
689.1377501486
 21
5.1480142988
  0
LINE
  5
234
100
AcDbEntity
  8
0
100
AcDbLine
 62
7
  6
CONTINUOUS
 10
637.0776404836
 20
6.3980142988
 11
621.6377501486
 21
6.3980142988
  0
LINE
  5
235
100
AcDbEntity
  8
0
100
AcDbLine
 62
7
  6
CONTINUOUS
 10
514.9283822932
 20
178.4286744985
 11
541.5615383072
 21
204.1480142988
  0
LINE
  5
236
100
AcDbEntity
  8
0
100
AcDbLine
 62
7
  6
CONTINUOUS
 10
581.9858076657
 20
243.1852774481
 11
589.8504682612
 21
250.7800919029
  0
LINE
  5
237
100
AcDbEntity
  8
0
100
AcDbLine
 62
9
  6
CONTINUOUS
 10
681.8877501486
 20
24.3977465603
 11
689.1377501486
 21
24.3977465603
  0
LINE
  5
238
100
AcDbEntity
  8
0
100
AcDbLine
 62
9
  6
CONTINUOUS
 10
689.1377501486
 20
28.89541499
 11
682.8877501486
 21
28.89541499
  0
LINE
  5
239
100
AcDbEntity
  8
0
100
AcDbLine
 62
7
  6
CONTINUOUS
 10
514.9283822932
 20
78.8673540992
 11
589.8504682612
 21
6.5159366948
  0
LINE
  5
23A
100
AcDbEntity
  8
0
100
AcDbLine
 62
9
  6
CONTINUOUS
 10
514.2337239228
 20
178.1480142988
 11
514.2337239228
 21
79.1480142988
  0
LINE
  5
23B
100
AcDbEntity
  8
0
100
AcDbLine
 62
9
  6
CONTINUOUS
 10
514.9283822932
 20
78.8673540992
 11
514.9283822932
 21
178.4286744985
  0
LINE
  5
23C
100
AcDbEntity
  8
0
100
AcDbLine
 62
7
  6
CONTINUOUS
 10
521.6377501486
 20
243.1480142988
 11
521.6377501486
 21
204.1480142988
  0
LINE
  5
23D
100
AcDbEntity
  8
0
100
AcDbLine
 62
9
  6
CONTINUOUS
 10
682.8877501486
 20
73.9956827285
 11
689.1377501486
 21
73.9956827285
  0
LINE
  5
23E
100
AcDbEntity
  8
0
100
AcDbLine
 62
7
  6
CONTINUOUS
 10
682.8877501486
 20
75.9980142988
 11
689.1377501486
 21
75.9980142988
  0
LINE
  5
23F
100
AcDbEntity
  8
0
100
AcDbLine
 62
7
  6
CONTINUOUS
 10
722.1377501486
 20
79.1480142988
 11
693.1377501486
 21
79.1480142988
  0
LINE
  5
240
100
AcDbEntity
  8
0
100
AcDbLine
 62
7
  6
CONTINUOUS
 10
514.2337239228
 20
79.1480142988
 11
484.6377501486
 21
79.1480142988
  0
LINE
  5
241
100
AcDbEntity
  8
0
100
AcDbLine
 62
9
  6
CONTINUOUS
 10
589.8504682612
 20
250.7800919029
 11
589.8504682612
 21
6.5159366948
  0
LINE
  5
242
100
AcDbEntity
  8
0
100
AcDbLine
 62
9
  6
CONTINUOUS
 10
598.1863687067
 20
3.1480142988
 11
598.1863687067
 21
254.1480142988
  0
LINE
  5
243
100
AcDbEntity
  8
0
100
AcDbLine
 62
9
  6
CONTINUOUS
 10
620.6377501486
 20
254.1480142988
 11
620.6377501486
 21
3.1480142988
  0
LINE
  5
244
100
AcDbEntity
  8
0
100
AcDbLine
 62
7
  6
CONTINUOUS
 10
621.6377501486
 20
253.1480142988
 11
621.6377501486
 21
4.1480142988
  0
LINE
  5
245
100
AcDbEntity
  8
0
100
AcDbLine
 62
9
  6
CONTINUOUS
 10
637.0776404836
 20
250.8980142988
 11
637.0776404836
 21
6.3980142988
  0
LINE
  5
246
100
AcDbEntity
  8
0
100
AcDbLine
 62
9
  6
CONTINUOUS
 10
647.6842422014
 20
10.791412581
 11
647.6842422014
 21
246.5046160166
  0
LINE
  5
247
100
AcDbEntity
  8
0
100
AcDbLine
 62
7
  6
CONTINUOUS
 10
722.1377501486
 20
178.1480142988
 11
693.1377501486
 21
178.1480142988
  0
LINE
  5
248
100
AcDbEntity
  8
0
100
AcDbLine
 62
7
  6
CONTINUOUS
 10
514.2337239228
 20
178.1480142988
 11
484.6377501486
 21
178.1480142988
  0
LINE
  5
249
100
AcDbEntity
  8
0
100
AcDbLine
 62
9
  6
CONTINUOUS
 10
680.6718240748
 20
213.5170341433
 11
680.6718240748
 21
43.7789944544
  0
LINE
  5
24A
100
AcDbEntity
  8
0
100
AcDbLine
 62
7
  6
CONTINUOUS
 10
681.8877501486
 20
-0.3519857012
 11
681.8877501486
 21
74.9980142988
  0
LINE
  5
24B
100
AcDbEntity
  8
0
100
AcDbLine
 62
9
  6
CONTINUOUS
 10
682.8877501486
 20
-1.3519857012
 11
682.8877501486
 21
75.9980142988
  0
LINE
  5
24C
100
AcDbEntity
  8
0
100
AcDbLine
 62
7
  6
CONTINUOUS
 10
521.6377501486
 20
204.1480142988
 11
551.8562633929
 21
204.1480142988
  0
LINE
  5
24D
100
AcDbEntity
  8
0
100
AcDbLine
 62
9
  6
CONTINUOUS
 10
688.8030486612
 20
75.9980142988
 11
688.8030486612
 21
198.5411814322
  0
LINE
  5
24E
100
AcDbEntity
  8
0
100
AcDbLine
 62
7
  6
CONTINUOUS
 10
689.1377501486
 20
-1.3519857012
 11
689.1377501486
 21
75.9980142988
  0
LINE
  5
24F
100
AcDbEntity
  8
0
100
AcDbLine
 62
7
  6
CONTINUOUS
 10
693.1377501486
 20
79.1480142988
 11
693.1377501486
 21
178.1480142988
  0
LINE
  5
250
100
AcDbEntity
  8
0
100
AcDbLine
 62
9
  6
CONTINUOUS
 10
705.6680182587
 20
0.1480142988
 11
705.6680182587
 21
-1.3519857012
  0
LINE
  5
251
100
AcDbEntity
  8
0
100
AcDbLine
 62
7
  6
CONTINUOUS
 10
707.0377501486
 20
0.1480142988
 11
707.0377501486
 21
-1.3519857012
  0
LINE
  5
252
100
AcDbEntity
  8
0
100
AcDbLine
 62
7
  6
CONTINUOUS
 10
693.1377501486
 20
79.1480142988
 11
689.1377501486
 21
60.3294938609
  0
LINE
  5
253
100
AcDbEntity
  8
0
100
AcDbLine
 62
7
  6
CONTINUOUS
 10
693.1377501486
 20
178.1480142988
 11
688.8030486612
 21
198.5411814322
  0
LINE
  5
254
100
AcDbEntity
  8
0
100
AcDbLine
 62
7
  6
CONTINUOUS
 10
680.6718240748
 20
43.7789944544
 11
647.6842422014
 21
10.791412581
  0
LINE
  5
255
100
AcDbEntity
  8
0
100
AcDbLine
 62
7
  6
CONTINUOUS
 10
521.6377501486
 20
243.1480142988
 11
588.9741422908
 21
243.1480142988
  0
LINE
  5
256
100
AcDbEntity
  8
0
100
AcDbLine
 62
7
  6
CONTINUOUS
 10
680.6718240748
 20
213.5170341433
 11
647.6842422014
 21
246.5046160166
  0
LINE
  5
257
100
AcDbEntity
  8
0
100
AcDbLine
 62
9
  6
CONTINUOUS
 10
722.1377501486
 20
178.1480142988
 11
722.1377501486
 21
79.1480142988
  0
LINE
  5
258
100
AcDbEntity
  8
0
100
AcDbLine
 62
7
  6
CONTINUOUS
 10
723.1377501486
 20
177.1480142988
 11
723.1377501486
 21
80.1480873138
  0
LINE
  5
259
100
AcDbEntity
  8
0
100
AcDbLine
 62
7
  6
CONTINUOUS
 10
637.0776404836
 20
250.8980142988
 11
621.6377501486
 21
250.8980142988
  0
LINE
  5
25A
100
AcDbEntity
  8
0
100
AcDbLine
 62
7
  6
CONTINUOUS
 10
620.6377501486
 20
254.1480142988
 11
598.1863687067
 21
254.1480142988
  0
LINE
  5
25B
100
AcDbEntity
  8
0
100
AcDbLine
 62
9
  6
CONTINUOUS
 10
123.3701936744
 20
27.165542517
 11
122.64824728
 21
27.8574915062
  0
LINE
  5
25C
100
AcDbEntity
  8
0
100
AcDbLine
 62
9
  6
CONTINUOUS
 10
127.7749031243
 20
28.5097427186
 11
128.8578227159
 21
27.4718192348
  0
LINE
  5
25D
100
AcDbEntity
  8
0
100
AcDbLine
 62
9
  6
CONTINUOUS
 10
149.0576417617
 20
5.7640470558
 11
148.1549192269
 21
6.9620003209
  0
LINE
  5
25E
100
AcDbEntity
  8
0
100
AcDbLine
 62
7
  6
CONTINUOUS
 10
119.7579792519
 20
24.3977465603
 11
119.7579792519
 21
5.1480142988
  0
LINE
  5
25F
100
AcDbEntity
  8
3_ALL_AXIS
100
AcDbLine
 62
7
  6
CONTINUOUS
 10
121.2579792519
 20
24.3977465603
 11
121.2579792519
 21
5.1480142988
  0
LINE
  5
260
100
AcDbEntity
  8
0
100
AcDbLine
 62
9
  6
CONTINUOUS
 10
122.2579792519
 20
5.1480142988
 11
122.2579792519
 21
24.3977465603
  0
LINE
  5
261
100
AcDbEntity
  8
0
100
AcDbLine
 62
7
  6
CONTINUOUS
 10
124.5077732584
 20
20.3793420958
 11
124.5077732584
 21
10.0230142988
  0
LINE
  5
262
100
AcDbEntity
  8
0
100
AcDbLine
 62
7
  6
CONTINUOUS
 10
126.0077732584
 20
20.3793420958
 11
126.0077732584
 21
10.0230142988
  0
LINE
  5
263
100
AcDbEntity
  8
0
100
AcDbLine
 62
9
  6
CONTINUOUS
 10
126.2579792519
 20
1.1480142988
 11
126.2579792519
 21
0.1480142988
  0
LINE
  5
264
100
AcDbEntity
  8
0
100
AcDbLine
 62
7
  6
CONTINUOUS
 10
126.2579792519
 20
-1.3519857012
 11
126.2579792519
 21
0.1480142988
  0
LINE
  5
265
100
AcDbEntity
  8
0
100
AcDbLine
 62
9
  6
CONTINUOUS
 10
131.1327732584
 20
3.3980142988
 11
131.1327732584
 21
4.8980142988
  0
LINE
  5
266
100
AcDbEntity
  8
0
100
AcDbLine
 62
7
  6
CONTINUOUS
 10
126.2579792519
 20
-1.3519857012
 11
384.7579792519
 21
-1.3519857012
  0
LINE
  5
267
100
AcDbEntity
  8
0
100
AcDbLine
 62
7
  6
CONTINUOUS
 10
126.2579792519
 20
0.1480142988
 11
384.7579792519
 21
0.1480142988
  0
LINE
  5
268
100
AcDbEntity
  8
0
100
AcDbLine
 62
9
  6
CONTINUOUS
 10
384.7579792519
 20
1.1480142988
 11
126.2579792519
 21
1.1480142988
  0
LINE
  5
269
100
AcDbEntity
  8
0
100
AcDbLine
 62
7
  6
CONTINUOUS
 10
131.1327732584
 20
3.3980142988
 11
141.9863152396
 21
3.3980142988
  0
LINE
  5
26A
100
AcDbEntity
  8
0
100
AcDbLine
 62
7
  6
CONTINUOUS
 10
204.544212093
 20
3.3980142988
 11
306.4717464109
 21
3.3980142988
  0
LINE
  5
26B
100
AcDbEntity
  8
0
100
AcDbLine
 62
7
  6
CONTINUOUS
 10
369.0296432643
 20
3.3980142988
 11
379.8831852455
 21
3.3980142988
  0
LINE
  5
26C
100
AcDbEntity
  8
0
100
AcDbLine
 62
7
  6
CONTINUOUS
 10
178.2302376073
 20
20.2644223635
 11
197.472885571
 21
5.7640470558
  0
LINE
  5
26D
100
AcDbEntity
  8
0
100
AcDbLine
 62
7
  6
CONTINUOUS
 10
179.1329601421
 20
21.4623756286
 11
198.3756081057
 21
6.9620003209
  0
LINE
  5
26E
100
AcDbEntity
  8
0
100
AcDbLine
 62
9
  6
CONTINUOUS
 10
145.8569833044
 20
47.3757180915
 11
146.939902896
 21
46.3377946077
  0
LINE
  5
26F
100
AcDbEntity
  8
0
100
AcDbLine
 62
9
  6
CONTINUOUS
 10
168.3002897253
 20
20.2644223635
 11
167.3975671906
 21
21.4623756286
  0
LINE
  5
270
100
AcDbEntity
  8
0
100
AcDbLine
 62
9
  6
CONTINUOUS
 10
141.9863152396
 20
3.3980142988
 11
141.9863152396
 21
4.8980142988
  0
LINE
  5
271
100
AcDbEntity
  8
0
100
AcDbLine
 62
9
  6
CONTINUOUS
 10
143.7117260274
 20
0.1480142988
 11
143.7117260274
 21
-1.3519857012
  0
LINE
  5
272
100
AcDbEntity
  8
0
100
AcDbLine
 62
7
  6
CONTINUOUS
 10
131.1327732584
 20
4.8980142988
 11
141.9863152396
 21
4.8980142988
  0
LINE
  5
273
100
AcDbEntity
  8
0
100
AcDbLine
 62
7
  6
CONTINUOUS
 10
204.544212093
 20
4.8980142988
 11
306.4717464109
 21
4.8980142988
  0
LINE
  5
274
100
AcDbEntity
  8
0
100
AcDbLine
 62
7
  6
CONTINUOUS
 10
369.0296432643
 20
4.8980142988
 11
379.8831852455
 21
4.8980142988
  0
LINE
  5
275
100
AcDbEntity
  8
0
100
AcDbLine
 62
9
  6
CONTINUOUS
 10
122.2579792519
 20
5.1480142988
 11
121.2579792519
 21
5.1480142988
  0
LINE
  5
276
100
AcDbEntity
  8
0
100
AcDbLine
 62
9
  6
CONTINUOUS
 10
388.7579792519
 20
5.1480142988
 11
389.7579792519
 21
5.1480142988
  0
LINE
  5
277
100
AcDbEntity
  8
0
100
AcDbLine
 62
9
  6
CONTINUOUS
 10
386.5081852455
 20
10.0230142988
 11
385.0081852455
 21
10.0230142988
  0
LINE
  5
278
100
AcDbEntity
  8
0
100
AcDbLine
 62
9
  6
CONTINUOUS
 10
124.5077732584
 20
10.0230142988
 11
126.0077732584
 21
10.0230142988
  0
LINE
  5
279
100
AcDbEntity
  8
0
100
AcDbLine
 62
9
  6
CONTINUOUS
 10
147.1499164597
 20
0.1480142988
 11
147.1499164597
 21
-1.3519857012
  0
LINE
  5
27A
100
AcDbEntity
  8
0
100
AcDbLine
 62
9
  6
CONTINUOUS
 10
386.5081852455
 20
20.3793420958
 11
385.0081852455
 21
20.3793420958
  0
LINE
  5
27B
100
AcDbEntity
  8
0
100
AcDbLine
 62
9
  6
CONTINUOUS
 10
124.5077732584
 20
20.3793420958
 11
126.0077732584
 21
20.3793420958
  0
LINE
  5
27C
100
AcDbEntity
  8
0
100
AcDbLine
 62
9
  6
CONTINUOUS
 10
122.2579792519
 20
24.3977465603
 11
121.2579792519
 21
24.3977465603
  0
LINE
  5
27D
100
AcDbEntity
  8
0
100
AcDbLine
 62
9
  6
CONTINUOUS
 10
388.7579792519
 20
24.3977465603
 11
389.7579792519
 21
24.3977465603
  0
LINE
  5
27E
100
AcDbEntity
  8
0
100
AcDbLine
 62
7
  6
CONTINUOUS
 10
204.588260205
 20
30.7779293085
 11
180.364917292
 21
49.0316001701
  0
LINE
  5
27F
100
AcDbEntity
  8
0
100
AcDbLine
 62
7
  6
CONTINUOUS
 10
205.490985033
 20
31.9758808455
 11
181.26764212
 21
50.2295517071
  0
LINE
  5
280
100
AcDbEntity
  8
0
100
AcDbLine
 62
9
  6
CONTINUOUS
 10
166.5965120213
 20
72.2658102556
 11
165.8745656269
 21
72.9577592447
  0
LINE
  5
281
100
AcDbEntity
  8
0
100
AcDbLine
 62
9
  6
CONTINUOUS
 10
169.4842975989
 20
73.4980142988
 11
169.4842975989
 21
74.4980142988
  0
LINE
  5
282
100
AcDbEntity
  8
0
100
AcDbLine
 62
7
  6
CONTINUOUS
 10
300.559986917
 20
28.8146142988
 11
210.4559715869
 21
28.8146142988
  0
LINE
  5
283
100
AcDbEntity
  8
0
100
AcDbLine
 62
7
  6
CONTINUOUS
 10
300.559986917
 20
30.3146142988
 11
210.4559715869
 21
30.3146142988
  0
LINE
  5
284
100
AcDbEntity
  8
0
100
AcDbLine
 62
9
  6
CONTINUOUS
 10
186.3927538151
 20
73.4980142988
 11
186.3927538151
 21
74.4980142988
  0
LINE
  5
285
100
AcDbEntity
  8
0
100
AcDbLine
 62
9
  6
CONTINUOUS
 10
204.544212093
 20
3.3980142988
 11
204.544212093
 21
4.8980142988
  0
LINE
  5
286
100
AcDbEntity
  8
0
100
AcDbLine
 62
9
  6
CONTINUOUS
 10
169.4842975989
 20
73.4980142988
 11
186.3927538151
 21
73.4980142988
  0
LINE
  5
287
100
AcDbEntity
  8
0
100
AcDbLine
 62
9
  6
CONTINUOUS
 10
324.6232046888
 20
73.4980142988
 11
341.531660905
 21
73.4980142988
  0
LINE
  5
288
100
AcDbEntity
  8
3_ALL_AXIS
100
AcDbLine
 62
7
  6
CONTINUOUS
 10
341.531660905
 20
74.4980142988
 11
324.6232046888
 21
74.4980142988
  0
LINE
  5
289
100
AcDbEntity
  8
3_ALL_AXIS
100
AcDbLine
 62
7
  6
CONTINUOUS
 10
186.3927538151
 20
74.4980142988
 11
169.4842975989
 21
74.4980142988
  0
LINE
  5
28A
100
AcDbEntity
  8
0
100
AcDbLine
 62
7
  6
CONTINUOUS
 10
341.531660905
 20
75.9980142988
 11
324.6232046888
 21
75.9980142988
  0
LINE
  5
28B
100
AcDbEntity
  8
0
100
AcDbLine
 62
7
  6
CONTINUOUS
 10
186.3927538151
 20
75.9980142988
 11
169.4842975989
 21
75.9980142988
  0
LINE
  5
28C
100
AcDbEntity
  8
0
100
AcDbLine
 62
9
  6
CONTINUOUS
 10
210.4559715869
 20
30.3146142988
 11
210.4559715869
 21
28.8146142988
  0
LINE
  5
28D
100
AcDbEntity
  8
0
100
AcDbLine
 62
7
  6
CONTINUOUS
 10
164.7916460353
 20
73.9956827285
 11
121.5653276884
 21
28.89541499
  0
LINE
  5
28E
100
AcDbEntity
  8
3_ALL_AXIS
100
AcDbLine
 62
7
  6
CONTINUOUS
 10
165.8745656269
 20
72.9577592447
 11
122.64824728
 21
27.8574915062
  0
LINE
  5
28F
100
AcDbEntity
  8
0
100
AcDbLine
 62
9
  6
CONTINUOUS
 10
123.3701936744
 20
27.165542517
 11
166.5965120213
 21
72.2658102556
  0
LINE
  5
290
100
AcDbEntity
  8
0
100
AcDbLine
 62
7
  6
CONTINUOUS
 10
145.8569833044
 20
47.3757180915
 11
127.7749031243
 21
28.5097427186
  0
LINE
  5
291
100
AcDbEntity
  8
0
100
AcDbLine
 62
7
  6
CONTINUOUS
 10
342.7156687786
 20
20.2644223635
 11
361.9583167422
 21
5.7640470558
  0
LINE
  5
292
100
AcDbEntity
  8
0
100
AcDbLine
 62
7
  6
CONTINUOUS
 10
343.6183913133
 20
21.4623756286
 11
362.861039277
 21
6.9620003209
  0
LINE
  5
293
100
AcDbEntity
  8
0
100
AcDbLine
 62
9
  6
CONTINUOUS
 10
313.5430729329
 20
5.7640470558
 11
312.6403503982
 21
6.9620003209
  0
LINE
  5
294
100
AcDbEntity
  8
0
100
AcDbLine
 62
9
  6
CONTINUOUS
 10
181.26764212
 20
50.2295517071
 11
180.364917292
 21
49.0316001701
  0
LINE
  5
295
100
AcDbEntity
  8
0
100
AcDbLine
 62
7
  6
CONTINUOUS
 10
146.939902896
 20
46.3377946077
 11
128.8578227159
 21
27.4718192348
  0
LINE
  5
296
100
AcDbEntity
  8
0
100
AcDbLine
 62
9
  6
CONTINUOUS
 10
321.220608975
 20
71.6009509142
 11
320.3699600458
 21
72.1266850668
  0
LINE
  5
297
100
AcDbEntity
  8
0
100
AcDbLine
 62
9
  6
CONTINUOUS
 10
305.5249734709
 20
31.9758808455
 11
306.4276982989
 21
30.7779293085
  0
LINE
  5
298
100
AcDbEntity
  8
0
100
AcDbLine
 62
9
  6
CONTINUOUS
 10
332.7857208966
 20
20.2644223635
 11
331.8829983618
 21
21.4623756286
  0
LINE
  5
299
100
AcDbEntity
  8
0
100
AcDbLine
 62
9
  6
CONTINUOUS
 10
178.2302376073
 20
20.2644223635
 11
179.1329601421
 21
21.4623756286
  0
LINE
  5
29A
100
AcDbEntity
  8
0
100
AcDbLine
 62
9
  6
CONTINUOUS
 10
189.7953495289
 20
71.6009509142
 11
190.6459984571
 21
72.1266850684
  0
LINE
  5
29B
100
AcDbEntity
  8
0
100
AcDbLine
 62
9
  6
CONTINUOUS
 10
329.7483163839
 20
50.2295517071
 11
330.6510412119
 21
49.0316001701
  0
LINE
  5
29C
100
AcDbEntity
  8
0
100
AcDbLine
 62
9
  6
CONTINUOUS
 10
205.490985033
 20
31.9758808455
 11
204.588260205
 21
30.7779293085
  0
LINE
  5
29D
100
AcDbEntity
  8
0
100
AcDbLine
 62
9
  6
CONTINUOUS
 10
197.472885571
 20
5.7640470558
 11
198.3756081057
 21
6.9620003209
  0
LINE
  5
29E
100
AcDbEntity
  8
0
100
AcDbLine
 62
7
  6
CONTINUOUS
 10
382.158135788
 20
27.4718192348
 11
364.0760556079
 21
46.3377946077
  0
LINE
  5
29F
100
AcDbEntity
  8
0
100
AcDbLine
 62
7
  6
CONTINUOUS
 10
383.2410553796
 20
28.5097427186
 11
365.1589751995
 21
47.3757180915
  0
LINE
  5
2A0
100
AcDbEntity
  8
0
100
AcDbLine
 62
7
  6
CONTINUOUS
 10
148.1549192269
 20
6.9620003209
 11
167.3975671906
 21
21.4623756286
  0
LINE
  5
2A1
100
AcDbEntity
  8
0
100
AcDbLine
 62
7
  6
CONTINUOUS
 10
149.0576417617
 20
5.7640470558
 11
168.3002897253
 21
20.2644223635
  0
LINE
  5
2A2
100
AcDbEntity
  8
0
100
AcDbLine
 62
9
  6
CONTINUOUS
 10
344.4194464826
 20
72.2658102556
 11
387.6457648295
 21
27.165542517
  0
LINE
  5
2A3
100
AcDbEntity
  8
3_ALL_AXIS
100
AcDbLine
 62
7
  6
CONTINUOUS
 10
388.3677112239
 20
27.8574915062
 11
345.141392877
 21
72.9577592447
  0
LINE
  5
2A4
100
AcDbEntity
  8
0
100
AcDbLine
 62
7
  6
CONTINUOUS
 10
389.4506308155
 20
28.89541499
 11
346.2243124686
 21
73.9956827285
  0
LINE
  5
2A5
100
AcDbEntity
  8
0
100
AcDbLine
 62
9
  6
CONTINUOUS
 10
300.559986917
 20
30.3146142988
 11
300.559986917
 21
28.8146142988
  0
LINE
  5
2A6
100
AcDbEntity
  8
0
100
AcDbLine
 62
9
  6
CONTINUOUS
 10
306.4717464109
 20
3.3980142988
 11
306.4717464109
 21
4.8980142988
  0
LINE
  5
2A7
100
AcDbEntity
  8
0
100
AcDbLine
 62
9
  6
CONTINUOUS
 10
324.6232046888
 20
73.4980142988
 11
324.6232046888
 21
74.4980142988
  0
LINE
  5
2A8
100
AcDbEntity
  8
0
100
AcDbLine
 62
9
  6
CONTINUOUS
 10
341.531660905
 20
73.4980142988
 11
341.531660905
 21
74.4980142988
  0
LINE
  5
2A9
100
AcDbEntity
  8
0
100
AcDbLine
 62
9
  6
CONTINUOUS
 10
344.4194464826
 20
72.2658102556
 11
345.141392877
 21
72.9577592447
  0
LINE
  5
2AA
100
AcDbEntity
  8
0
100
AcDbLine
 62
9
  6
CONTINUOUS
 10
363.8660420442
 20
-1.3519857012
 11
363.8660420442
 21
0.1480142988
  0
LINE
  5
2AB
100
AcDbEntity
  8
0
100
AcDbLine
 62
9
  6
CONTINUOUS
 10
367.3042324765
 20
-1.3519857012
 11
367.3042324765
 21
0.1480142988
  0
LINE
  5
2AC
100
AcDbEntity
  8
0
100
AcDbLine
 62
7
  6
CONTINUOUS
 10
329.7483163839
 20
50.2295517071
 11
305.5249734709
 21
31.9758808455
  0
LINE
  5
2AD
100
AcDbEntity
  8
0
100
AcDbLine
 62
7
  6
CONTINUOUS
 10
330.6510412119
 20
49.0316001701
 11
306.4276982989
 21
30.7779293085
  0
LINE
  5
2AE
100
AcDbEntity
  8
0
100
AcDbLine
 62
9
  6
CONTINUOUS
 10
369.0296432643
 20
3.3980142988
 11
369.0296432643
 21
4.8980142988
  0
LINE
  5
2AF
100
AcDbEntity
  8
0
100
AcDbLine
 62
9
  6
CONTINUOUS
 10
379.8831852455
 20
3.3980142988
 11
379.8831852455
 21
4.8980142988
  0
LINE
  5
2B0
100
AcDbEntity
  8
0
100
AcDbLine
 62
9
  6
CONTINUOUS
 10
384.7579792519
 20
1.1480142988
 11
384.7579792519
 21
0.1480142988
  0
LINE
  5
2B1
100
AcDbEntity
  8
0
100
AcDbLine
 62
7
  6
CONTINUOUS
 10
384.7579792519
 20
-1.3519857012
 11
384.7579792519
 21
0.1480142988
  0
LINE
  5
2B2
100
AcDbEntity
  8
0
100
AcDbLine
 62
7
  6
CONTINUOUS
 10
385.0081852455
 20
10.0230142988
 11
385.0081852455
 21
20.3793420958
  0
LINE
  5
2B3
100
AcDbEntity
  8
0
100
AcDbLine
 62
7
  6
CONTINUOUS
 10
386.5081852455
 20
10.0230142988
 11
386.5081852455
 21
20.3793420958
  0
LINE
  5
2B4
100
AcDbEntity
  8
0
100
AcDbLine
 62
9
  6
CONTINUOUS
 10
388.7579792519
 20
24.3977465603
 11
388.7579792519
 21
5.1480142988
  0
LINE
  5
2B5
100
AcDbEntity
  8
3_ALL_AXIS
100
AcDbLine
 62
7
  6
CONTINUOUS
 10
389.7579792519
 20
5.1480142988
 11
389.7579792519
 21
24.3977465603
  0
LINE
  5
2B6
100
AcDbEntity
  8
0
100
AcDbLine
 62
7
  6
CONTINUOUS
 10
391.2579792519
 20
24.3977465603
 11
391.2579792519
 21
5.1480142988
  0
LINE
  5
2B7
100
AcDbEntity
  8
0
100
AcDbLine
 62
9
  6
CONTINUOUS
 10
342.7156687786
 20
20.2644223635
 11
343.6183913133
 21
21.4623756286
  0
LINE
  5
2B8
100
AcDbEntity
  8
0
100
AcDbLine
 62
9
  6
CONTINUOUS
 10
365.1589751995
 20
47.3757180915
 11
364.0760556079
 21
46.3377946077
  0
LINE
  5
2B9
100
AcDbEntity
  8
0
100
AcDbLine
 62
7
  6
CONTINUOUS
 10
312.6403503982
 20
6.9620003209
 11
331.8829983618
 21
21.4623756286
  0
LINE
  5
2BA
100
AcDbEntity
  8
0
100
AcDbLine
 62
7
  6
CONTINUOUS
 10
313.5430729329
 20
5.7640470558
 11
332.7857208966
 21
20.2644223635
  0
LINE
  5
2BB
100
AcDbEntity
  8
0
100
AcDbLine
 62
9
  6
CONTINUOUS
 10
361.9583167422
 20
5.7640470558
 11
362.861039277
 21
6.9620003209
  0
LINE
  5
2BC
100
AcDbEntity
  8
0
100
AcDbLine
 62
9
  6
CONTINUOUS
 10
383.2410553796
 20
28.5097427186
 11
382.158135788
 21
27.4718192348
  0
LINE
  5
2BD
100
AcDbEntity
  8
0
100
AcDbLine
 62
9
  6
CONTINUOUS
 10
387.6457648295
 20
27.165542517
 11
388.3677112239
 21
27.8574915062
  0
LINE
  5
2BE
100
AcDbEntity
  8
0
100
AcDbLine
 62
7
  6
CONTINUOUS
 10
689.1377501486
 20
316.4897721233
 11
682.8877501486
 21
316.4897721233
  0
LINE
  5
2BF
100
AcDbEntity
  8
0
100
AcDbLine
 62
7
  6
CONTINUOUS
 10
484.6377501486
 20
402.7397721233
 11
484.6377501486
 21
501.7397721233
  0
LINE
  5
2C0
100
AcDbEntity
  8
0
100
AcDbLine
 62
9
  6
CONTINUOUS
 10
681.8877501486
 20
322.9897721233
 11
689.1377501486
 21
322.9897721233
  0
LINE
  5
2C1
100
AcDbEntity
  8
0
100
AcDbLine
 62
7
  6
CONTINUOUS
 10
620.6377501486
 20
326.7397721233
 11
598.1863687067
 21
326.7397721233
  0
LINE
  5
2C2
100
AcDbEntity
  8
0
100
AcDbLine
 62
7
  6
CONTINUOUS
 10
637.0776404836
 20
329.9897721233
 11
621.6377501486
 21
329.9897721233
  0
LINE
  5
2C3
100
AcDbEntity
  8
0
100
AcDbLine
 62
7
  6
CONTINUOUS
 10
514.9283822932
 20
502.0204323229
 11
589.8504682612
 21
574.3718497274
  0
LINE
  5
2C4
100
AcDbEntity
  8
0
100
AcDbLine
 62
7
  6
CONTINUOUS
 10
514.9283822932
 20
402.4591119236
 11
589.8504682612
 21
330.1076945192
  0
LINE
  5
2C5
100
AcDbEntity
  8
0
100
AcDbLine
 62
9
  6
CONTINUOUS
 10
514.2337239228
 20
501.7397721233
 11
514.2337239228
 21
402.7397721233
  0
LINE
  5
2C6
100
AcDbEntity
  8
0
100
AcDbLine
 62
9
  6
CONTINUOUS
 10
514.9283822932
 20
402.4591119236
 11
514.9283822932
 21
502.0204323229
  0
LINE
  5
2C7
100
AcDbEntity
  8
0
100
AcDbLine
 62
7
  6
CONTINUOUS
 10
722.1377501486
 20
402.7397721233
 11
707.0377501486
 21
402.7397721233
  0
LINE
  5
2C8
100
AcDbEntity
  8
0
100
AcDbLine
 62
7
  6
CONTINUOUS
 10
514.2337239228
 20
402.7397721233
 11
484.6377501486
 21
402.7397721233
  0
LINE
  5
2C9
100
AcDbEntity
  8
3_ALL_AXIS
100
AcDbLine
 62
7
  6
CONTINUOUS
 10
691.1377501486
 20
419.7397721233
 11
693.8076231297
 21
419.7397721233
  0
LINE
  5
2CA
100
AcDbEntity
  8
3_ALL_AXIS
100
AcDbLine
 62
7
  6
CONTINUOUS
 10
693.8076231297
 20
424.7397721233
 11
691.1377501486
 21
424.7397721233
  0
LINE
  5
2CB
100
AcDbEntity
  8
0
100
AcDbLine
 62
9
  6
CONTINUOUS
 10
589.8504682612
 20
574.3718497274
 11
589.8504682612
 21
330.1076945192
  0
LINE
  5
2CC
100
AcDbEntity
  8
0
100
AcDbLine
 62
9
  6
CONTINUOUS
 10
598.1863687067
 20
326.7397721233
 11
598.1863687067
 21
577.7397721233
  0
LINE
  5
2CD
100
AcDbEntity
  8
0
100
AcDbLine
 62
9
  6
CONTINUOUS
 10
620.6377501486
 20
577.7397721233
 11
620.6377501486
 21
326.7397721233
  0
LINE
  5
2CE
100
AcDbEntity
  8
0
100
AcDbLine
 62
7
  6
CONTINUOUS
 10
621.6377501486
 20
576.7397675533
 11
621.6377501486
 21
327.7397721233
  0
LINE
  5
2CF
100
AcDbEntity
  8
0
100
AcDbLine
 62
9
  6
CONTINUOUS
 10
637.0776404836
 20
574.4897721233
 11
637.0776404836
 21
329.9897721233
  0
LINE
  5
2D0
100
AcDbEntity
  8
3_ALL_AXIS
100
AcDbLine
 62
7
  6
CONTINUOUS
 10
691.1377501486
 20
479.7397721233
 11
693.8076231297
 21
479.7397721233
  0
LINE
  5
2D1
100
AcDbEntity
  8
3_ALL_AXIS
100
AcDbLine
 62
7
  6
CONTINUOUS
 10
693.8076231297
 20
484.7397721233
 11
691.1377501486
 21
484.7397721233
  0
LINE
  5
2D2
100
AcDbEntity
  8
0
100
AcDbLine
 62
9
  6
CONTINUOUS
 10
647.6842422014
 20
334.3831704055
 11
647.6842422014
 21
570.0963738411
  0
LINE
  5
2D3
100
AcDbEntity
  8
0
100
AcDbLine
 62
7
  6
CONTINUOUS
 10
722.1377501486
 20
501.7397721233
 11
707.0377501486
 21
501.7397721233
  0
LINE
  5
2D4
100
AcDbEntity
  8
0
100
AcDbLine
 62
7
  6
CONTINUOUS
 10
514.2337239228
 20
501.7397721233
 11
484.6377501486
 21
501.7397721233
  0
LINE
  5
2D5
100
AcDbEntity
  8
0
100
AcDbLine
 62
9
  6
CONTINUOUS
 10
680.6718240748
 20
537.1087919677
 11
680.6718240748
 21
367.3707522788
  0
LINE
  5
2D6
100
AcDbEntity
  8
0
100
AcDbLine
 62
7
  6
CONTINUOUS
 10
681.8877501486
 20
317.4897721233
 11
681.8877501486
 21
586.9897721233
  0
LINE
  5
2D7
100
AcDbEntity
  8
0
100
AcDbLine
 62
9
  6
CONTINUOUS
 10
682.8877501486
 20
316.4897721233
 11
682.8877501486
 21
587.9897721233
  0
LINE
  5
2D8
100
AcDbEntity
  8
3_ALL_AXIS
100
AcDbLine
 62
7
  6
CONTINUOUS
 10
689.1377501486
 20
483.7355523503
 11
689.1377501486
 21
480.7439918963
  0
LINE
  5
2D9
100
AcDbEntity
  8
3_ALL_AXIS
100
AcDbLine
 62
7
  6
CONTINUOUS
 10
689.1377501486
 20
423.7355523503
 11
689.1377501486
 21
420.7439918963
  0
LINE
  5
2DA
100
AcDbEntity
  8
0
100
AcDbLine
 62
7
  6
CONTINUOUS
 10
689.1377501486
 20
316.4897721233
 11
689.1377501486
 21
322.9897721233
  0
LINE
  5
2DB
100
AcDbEntity
  8
3_ALL_AXIS
100
AcDbLine
 62
7
  6
CONTINUOUS
 10
689.1377501486
 20
349.2389844138
 11
689.1377501486
 21
355.2405598328
  0
LINE
  5
2DC
100
AcDbEntity
  8
3_ALL_AXIS
100
AcDbLine
 62
7
  6
CONTINUOUS
 10
689.1377501486
 20
549.2389844138
 11
689.1377501486
 21
555.2405598328
  0
LINE
  5
2DD
100
AcDbEntity
  8
0
100
AcDbLine
 62
7
  6
CONTINUOUS
 10
689.1377501486
 20
581.4897721233
 11
689.1377501486
 21
587.9897721233
  0
LINE
  5
2DE
100
AcDbEntity
  8
3_ALL_AXIS
100
AcDbLine
 62
7
  6
CONTINUOUS
 10
691.5377501486
 20
564.2397721233
 11
691.5377501486
 21
557.4178509176
  0
LINE
  5
2DF
100
AcDbEntity
  8
3_ALL_AXIS
100
AcDbLine
 62
7
  6
CONTINUOUS
 10
691.5377501486
 20
547.061693329
 11
691.5377501486
 21
540.2397721233
  0
LINE
  5
2E0
100
AcDbEntity
  8
3_ALL_AXIS
100
AcDbLine
 62
7
  6
CONTINUOUS
 10
691.5377501486
 20
364.2397721233
 11
691.5377501486
 21
357.4178509176
  0
LINE
  5
2E1
100
AcDbEntity
  8
3_ALL_AXIS
100
AcDbLine
 62
7
  6
CONTINUOUS
 10
691.5377501486
 20
347.061693329
 11
691.5377501486
 21
340.2397721233
  0
LINE
  5
2E2
100
AcDbEntity
  8
0
100
AcDbLine
 62
7
  6
CONTINUOUS
 10
693.1377501486
 20
419.7397721233
 11
693.1377501486
 21
424.7397721233
  0
LINE
  5
2E3
100
AcDbEntity
  8
0
100
AcDbLine
 62
7
  6
CONTINUOUS
 10
693.1377501486
 20
479.7397721233
 11
693.1377501486
 21
484.7397721233
  0
LINE
  5
2E4
100
AcDbEntity
  8
3_ALL_AXIS
100
AcDbLine
 62
7
  6
CONTINUOUS
 10
696.5377501486
 20
340.2397721233
 11
696.5377501486
 21
347.061693329
  0
LINE
  5
2E5
100
AcDbEntity
  8
3_ALL_AXIS
100
AcDbLine
 62
7
  6
CONTINUOUS
 10
696.5377501486
 20
357.4178509176
 11
696.5377501486
 21
364.2397721233
  0
LINE
  5
2E6
100
AcDbEntity
  8
3_ALL_AXIS
100
AcDbLine
 62
7
  6
CONTINUOUS
 10
696.5377501486
 20
540.2397721233
 11
696.5377501486
 21
547.061693329
  0
LINE
  5
2E7
100
AcDbEntity
  8
3_ALL_AXIS
100
AcDbLine
 62
7
  6
CONTINUOUS
 10
696.5377501486
 20
557.4178509176
 11
696.5377501486
 21
564.2397721233
  0
LINE
  5
2E8
100
AcDbEntity
  8
0
100
AcDbLine
 62
7
  6
CONTINUOUS
 10
707.0377501486
 20
560.5978349155
 11
707.0377501486
 21
343.881709331
  0
LINE
  5
2E9
100
AcDbEntity
  8
0
100
AcDbLine
 62
9
  6
CONTINUOUS
 10
722.1377501486
 20
501.7397721233
 11
722.1377501486
 21
402.7397721233
  0
LINE
  5
2EA
100
AcDbEntity
  8
0
100
AcDbLine
 62
7
  6
CONTINUOUS
 10
723.1377501486
 20
500.7397721233
 11
723.1377501486
 21
403.7397721233
  0
LINE
  5
2EB
100
AcDbEntity
  8
0
100
AcDbLine
 62
7
  6
CONTINUOUS
 10
680.6718240748
 20
367.3707522788
 11
647.6842422014
 21
334.3831704055
  0
LINE
  5
2EC
100
AcDbEntity
  8
0
100
AcDbLine
 62
7
  6
CONTINUOUS
 10
680.6718240748
 20
537.1087919677
 11
647.6842422014
 21
570.0963738411
  0
LINE
  5
2ED
100
AcDbEntity
  8
0
100
AcDbLine
 62
7
  6
CONTINUOUS
 10
637.0776404836
 20
574.4897721233
 11
621.6377501486
 21
574.4897721233
  0
LINE
  5
2EE
100
AcDbEntity
  8
0
100
AcDbLine
 62
7
  6
CONTINUOUS
 10
620.6377501486
 20
577.7397721233
 11
598.1863687067
 21
577.7397721233
  0
LINE
  5
2EF
100
AcDbEntity
  8
0
100
AcDbLine
 62
9
  6
CONTINUOUS
 10
681.8877501486
 20
581.4897721233
 11
689.1377501486
 21
581.4897721233
  0
LINE
  5
2F0
100
AcDbEntity
  8
0
100
AcDbLine
 62
7
  6
CONTINUOUS
 10
689.1377501486
 20
587.9897721233
 11
682.8877501486
 21
587.9897721233
  0
LINE
  5
2F1
100
AcDbEntity
  8
0
100
AcDbLine
 62
7
  6
CONTINUOUS
 10
705.6680182587
 20
340.4435188987
 11
689.1377501486
 21
322.9897721233
  0
LINE
  5
2F2
100
AcDbEntity
  8
0
100
AcDbLine
 62
7
  6
CONTINUOUS
 10
689.1377501486
 20
581.4897721233
 11
705.6680182587
 21
564.0360253478
  0
ARC
  5
2F3
100
AcDbEntity
  8
0
100
AcDbCircle
 62
7
  6
CONTINUOUS
 10
659.4586206392
 20
64.99219789
 40
30.0
100
AcDbArc
 50
315.0
 51
318.3996654013
  0
ARC
  5
2F4
100
AcDbEntity
  8
0
100
AcDbCircle
 62
7
  6
CONTINUOUS
 10
659.4586206392
 20
192.3038307077
 40
30.0
100
AcDbArc
 50
12.0
 51
45.0
  0
ARC
  5
2F5
100
AcDbEntity
  8
0
100
AcDbCircle
 62
7
  6
CONTINUOUS
 10
637.0776404836
 20
235.8980142988
 40
15.0
100
AcDbArc
 50
45.0
 51
90.0
  0
ARC
  5
2F6
100
AcDbEntity
  8
0
100
AcDbCircle
 62
7
  6
CONTINUOUS
 10
637.0776404836
 20
21.3980142988
 40
15.0
100
AcDbArc
 50
270.0
 51
315.0
  0
ARC
  5
2F7
100
AcDbEntity
  8
0
100
AcDbCircle
 62
7
  6
CONTINUOUS
 10
598.1863687067
 20
242.1480142988
 40
12.0
100
AcDbArc
 50
90.0
 51
133.9999999999
  0
ARC
  5
2F8
100
AcDbEntity
  8
0
100
AcDbCircle
 62
7
  6
CONTINUOUS
 10
598.1863687067
 20
15.1480142988
 40
12.0
100
AcDbArc
 50
226.0000000001
 51
270.0
  0
ARC
  5
2F9
100
AcDbEntity
  8
0
100
AcDbCircle
 62
7
  6
CONTINUOUS
 10
682.8877501486
 20
-0.3519857012
 40
1.0
100
AcDbArc
 50
180.0
 51
270.0
  0
ARC
  5
2FA
100
AcDbEntity
  8
0
100
AcDbCircle
 62
7
  6
CONTINUOUS
 10
682.8877501486
 20
74.9980142988
 40
1.0
100
AcDbArc
 50
90.0
 51
180.0
  0
ARC
  5
2FB
100
AcDbEntity
  8
0
100
AcDbCircle
 62
7
  6
CONTINUOUS
 10
722.1377501486
 20
80.1480142988
 40
1.0
100
AcDbArc
 50
270.0
 51
360.0
  0
ARC
  5
2FC
100
AcDbEntity
  8
0
100
AcDbCircle
 62
7
  6
CONTINUOUS
 10
722.1377501486
 20
177.1480142988
 40
1.0
100
AcDbArc
 50
0.0
 51
90.0
  0
ARC
  5
2FD
100
AcDbEntity
  8
0
100
AcDbCircle
 62
7
  6
CONTINUOUS
 10
620.6377501486
 20
253.1480142988
 40
1.0
100
AcDbArc
 50
0.0
 51
90.0
  0
ARC
  5
2FE
100
AcDbEntity
  8
0
100
AcDbCircle
 62
7
  6
CONTINUOUS
 10
620.6377501486
 20
4.1480142988
 40
1.0
100
AcDbArc
 50
270.0
 51
360.0
  0
ARC
  5
2FF
100
AcDbEntity
  8
0
100
AcDbCircle
 62
7
  6
CONTINUOUS
 10
514.2337239228
 20
179.1480142988
 40
1.0
100
AcDbArc
 50
270.0
 51
313.9999999975
  0
ARC
  5
300
100
AcDbEntity
  8
0
100
AcDbCircle
 62
7
  6
CONTINUOUS
 10
514.2337239228
 20
78.1480142988
 40
1.0
100
AcDbArc
 50
46.0000000025
 51
90.0
  0
ARC
  5
301
100
AcDbEntity
  8
0
100
AcDbCircle
 62
7
  6
CONTINUOUS
 10
165.1690493544
 20
28.8660826309
 40
26.7501841986
100
AcDbArc
 50
52.9998903182
 51
136.2154130528
  0
ARC
  5
302
100
AcDbEntity
  8
0
100
AcDbCircle
 62
7
  6
CONTINUOUS
 10
165.1690493544
 20
28.8660826309
 40
25.2504170011
100
AcDbArc
 50
52.9998903182
 51
136.2154130528
  0
ARC
  5
303
100
AcDbEntity
  8
0
100
AcDbCircle
 62
7
  6
CONTINUOUS
 10
136.2577732584
 20
20.3793420958
 40
11.7508515184
100
AcDbArc
 50
136.2154130528
 51
180.0
  0
ARC
  5
304
100
AcDbEntity
  8
0
100
AcDbCircle
 62
7
  6
CONTINUOUS
 10
141.9863152396
 20
15.1480142988
 40
11.7498453134
100
AcDbArc
 50
270.0
 51
307.0
  0
ARC
  5
305
100
AcDbEntity
  8
0
100
AcDbCircle
 62
7
  6
CONTINUOUS
 10
204.544212093
 20
15.1480142988
 40
11.7498453134
100
AcDbArc
 50
233.0
 51
270.0
  0
ARC
  5
306
100
AcDbEntity
  8
0
100
AcDbCircle
 62
7
  6
CONTINUOUS
 10
136.2577732584
 20
20.3793420958
 40
10.2517417304
100
AcDbArc
 50
136.2154130528
 51
180.0
  0
ARC
  5
307
100
AcDbEntity
  8
0
100
AcDbCircle
 62
7
  6
CONTINUOUS
 10
141.9863152396
 20
15.1480142988
 40
10.2496776028
100
AcDbArc
 50
270.0
 51
307.0
  0
ARC
  5
308
100
AcDbEntity
  8
0
100
AcDbCircle
 62
7
  6
CONTINUOUS
 10
204.544212093
 20
15.1480142988
 40
10.2496776028
100
AcDbArc
 50
233.0
 51
270.0
  0
ARC
  5
309
100
AcDbEntity
  8
0
100
AcDbCircle
 62
7
  6
CONTINUOUS
 10
173.2652636663
 20
13.6756794056
 40
9.7504156321
100
AcDbArc
 50
53.0
 51
127.0
  0
ARC
  5
30A
100
AcDbEntity
  8
0
100
AcDbCircle
 62
7
  6
CONTINUOUS
 10
210.4559715869
 20
38.5646142988
 40
9.7498352577
100
AcDbArc
 50
232.9998903182
 51
270.0
  0
ARC
  5
30B
100
AcDbEntity
  8
0
100
AcDbCircle
 62
7
  6
CONTINUOUS
 10
173.2652636663
 20
13.6756794056
 40
8.2501410572
100
AcDbArc
 50
53.0
 51
127.0
  0
ARC
  5
30C
100
AcDbEntity
  8
0
100
AcDbCircle
 62
7
  6
CONTINUOUS
 10
210.4559715869
 20
38.5646142988
 40
8.2499422697
100
AcDbArc
 50
232.9998903182
 51
270.0
  0
CIRCLE
  5
30D
100
AcDbEntity
  8
0
100
AcDbCircle
 62
7
  6
CONTINUOUS
 10
140.5079792519
 20
18.3146142988
 40
7.8498793269
  0
ARC
  5
30E
100
AcDbEntity
  8
0
100
AcDbCircle
 62
7
  6
CONTINUOUS
 10
131.1327732584
 20
10.0230142988
 40
6.6250288194
100
AcDbArc
 50
180.0
 51
270.0
  0
ARC
  5
30F
100
AcDbEntity
  8
0
100
AcDbCircle
 62
7
  6
CONTINUOUS
 10
126.2579792519
 20
5.1480142988
 40
6.5
100
AcDbArc
 50
180.0
 51
270.0
  0
ARC
  5
310
100
AcDbEntity
  8
0
100
AcDbCircle
 62
7
  6
CONTINUOUS
 10
126.2579792519
 20
24.3977465603
 40
6.5
100
AcDbArc
 50
136.2154130528
 51
180.0
  0
CIRCLE
  5
311
100
AcDbEntity
  8
0
100
AcDbCircle
 62
7
  6
CONTINUOUS
 10
140.5079792519
 20
18.3146142988
 40
6.3498635738
  0
ARC
  5
312
100
AcDbEntity
  8
0
100
AcDbCircle
 62
7
  6
CONTINUOUS
 10
131.1327732584
 20
10.0230142988
 40
5.1250783465
100
AcDbArc
 50
180.0
 51
270.0
  0
ARC
  5
313
100
AcDbEntity
  8
3_ALL_AXIS
100
AcDbCircle
 62
7
  6
CONTINUOUS
 10
126.2579792519
 20
24.3977465603
 40
5.0
100
AcDbArc
 50
136.2154130528
 51
180.0
  0
ARC
  5
314
100
AcDbEntity
  8
0
100
AcDbCircle
 62
7
  6
CONTINUOUS
 10
126.2579792519
 20
5.1480142988
 40
5.0
100
AcDbArc
 50
180.0
 51
270.0
  0
ARC
  5
315
100
AcDbEntity
  8
0
100
AcDbCircle
 62
9
  6
CONTINUOUS
 10
126.2579792519
 20
5.1480142988
 40
3.9999910883
100
AcDbArc
 50
180.0
 51
270.0
  0
ARC
  5
316
100
AcDbEntity
  8
0
100
AcDbCircle
 62
9
  6
CONTINUOUS
 10
126.2579792519
 20
24.3977465603
 40
3.9999859318
100
AcDbArc
 50
136.2154130528
 51
180.0
  0
CIRCLE
  5
317
100
AcDbEntity
  8
3_ALL_AXIS
100
AcDbCircle
 62
7
  6
CONTINUOUS
 10
140.5079792519
 20
18.3146142988
 40
2.5
  0
CIRCLE
  5
318
100
AcDbEntity
  8
3_ALL_AXIS
100
AcDbCircle
 62
7
  6
CONTINUOUS
 10
171.2733792519
 20
63.9980142988
 40
2.5
  0
CIRCLE
  5
319
100
AcDbEntity
  8
3_ALL_AXIS
100
AcDbCircle
 62
7
  6
CONTINUOUS
 10
188.5641792519
 20
52.1736142988
 40
2.5
  0
CIRCLE
  5
31A
100
AcDbEntity
  8
3_ALL_AXIS
100
AcDbCircle
 62
7
  6
CONTINUOUS
 10
211.2278792519
 20
38.1981142988
 40
2.5
  0
ARC
  5
31B
100
AcDbEntity
  8
0
100
AcDbCircle
 62
7
  6
CONTINUOUS
 10
169.4842975989
 20
69.4980142988
 40
6.5
100
AcDbArc
 50
90.0
 51
136.2154130528
  0
ARC
  5
31C
100
AcDbEntity
  8
0
100
AcDbCircle
 62
7
  6
CONTINUOUS
 10
186.3927538151
 20
69.4980142988
 40
6.5
100
AcDbArc
 50
31.7176792879
 51
90.0
  0
ARC
  5
31D
100
AcDbEntity
  8
3_ALL_AXIS
100
AcDbCircle
 62
7
  6
CONTINUOUS
 10
186.3927538151
 20
69.4980142988
 40
5.0
100
AcDbArc
 50
31.7176792879
 51
90.0
  0
ARC
  5
31E
100
AcDbEntity
  8
3_ALL_AXIS
100
AcDbCircle
 62
7
  6
CONTINUOUS
 10
169.4842975989
 20
69.4980142988
 40
5.0
100
AcDbArc
 50
90.0
 51
136.2154130528
  0
ARC
  5
31F
100
AcDbEntity
  8
0
100
AcDbCircle
 62
9
  6
CONTINUOUS
 10
186.3927538151
 20
69.4980142988
 40
3.9999964735
100
AcDbArc
 50
31.7176792879
 51
90.0
  0
ARC
  5
320
100
AcDbEntity
  8
0
100
AcDbCircle
 62
9
  6
CONTINUOUS
 10
169.4842975989
 20
69.4980142988
 40
3.999981888
100
AcDbArc
 50
90.0
 51
136.2154130528
  0
ARC
  5
321
100
AcDbEntity
  8
0
100
AcDbCircle
 62
7
  6
CONTINUOUS
 10
345.8469091495
 20
28.8660826309
 40
26.7501841986
100
AcDbArc
 50
43.7845869472
 51
127.0001096818
  0
ARC
  5
322
100
AcDbEntity
  8
0
100
AcDbCircle
 62
7
  6
CONTINUOUS
 10
345.8469091495
 20
28.8660826309
 40
25.2504170011
100
AcDbArc
 50
43.7845869472
 51
127.0001096818
  0
ARC
  5
323
100
AcDbEntity
  8
0
100
AcDbCircle
 62
7
  6
CONTINUOUS
 10
374.7581852455
 20
20.3793420958
 40
11.7508515184
100
AcDbArc
 50
0.0
 51
43.7845869472
  0
ARC
  5
324
100
AcDbEntity
  8
0
100
AcDbCircle
 62
7
  6
CONTINUOUS
 10
306.4717464109
 20
15.1480142988
 40
11.7498453134
100
AcDbArc
 50
270.0
 51
307.0
  0
ARC
  5
325
100
AcDbEntity
  8
0
100
AcDbCircle
 62
7
  6
CONTINUOUS
 10
369.0296432643
 20
15.1480142988
 40
11.7498453134
100
AcDbArc
 50
233.0
 51
270.0
  0
ARC
  5
326
100
AcDbEntity
  8
0
100
AcDbCircle
 62
7
  6
CONTINUOUS
 10
374.7581852455
 20
20.3793420958
 40
10.2517417304
100
AcDbArc
 50
0.0
 51
43.7845869472
  0
ARC
  5
327
100
AcDbEntity
  8
0
100
AcDbCircle
 62
7
  6
CONTINUOUS
 10
306.4717464109
 20
15.1480142988
 40
10.2496776028
100
AcDbArc
 50
270.0
 51
307.0
  0
ARC
  5
328
100
AcDbEntity
  8
0
100
AcDbCircle
 62
7
  6
CONTINUOUS
 10
369.0296432643
 20
15.1480142988
 40
10.2496776028
100
AcDbArc
 50
233.0
 51
270.0
  0
ARC
  5
329
100
AcDbEntity
  8
0
100
AcDbCircle
 62
7
  6
CONTINUOUS
 10
337.7506948376
 20
13.6756794056
 40
9.7504156321
100
AcDbArc
 50
53.0
 51
127.0
  0
ARC
  5
32A
100
AcDbEntity
  8
0
100
AcDbCircle
 62
7
  6
CONTINUOUS
 10
300.559986917
 20
38.5646142988
 40
9.7498352577
100
AcDbArc
 50
270.0
 51
307.0001096818
  0
ARC
  5
32B
100
AcDbEntity
  8
0
100
AcDbCircle
 62
7
  6
CONTINUOUS
 10
337.7506948376
 20
13.6756794056
 40
8.2501410572
100
AcDbArc
 50
53.0
 51
127.0
  0
ARC
  5
32C
100
AcDbEntity
  8
0
100
AcDbCircle
 62
7
  6
CONTINUOUS
 10
300.559986917
 20
38.5646142988
 40
8.2499422697
100
AcDbArc
 50
270.0
 51
307.0001096818
  0
CIRCLE
  5
32D
100
AcDbEntity
  8
0
100
AcDbCircle
 62
7
  6
CONTINUOUS
 10
370.5079792519
 20
18.3146142988
 40
7.8498793269
  0
ARC
  5
32E
100
AcDbEntity
  8
0
100
AcDbCircle
 62
7
  6
CONTINUOUS
 10
379.8831852455
 20
10.0230142988
 40
6.6250288194
100
AcDbArc
 50
270.0
 51
360.0
  0
ARC
  5
32F
100
AcDbEntity
  8
0
100
AcDbCircle
 62
7
  6
CONTINUOUS
 10
384.7579792519
 20
24.3977465603
 40
6.5
100
AcDbArc
 50
0.0
 51
43.7845869472
  0
ARC
  5
330
100
AcDbEntity
  8
0
100
AcDbCircle
 62
7
  6
CONTINUOUS
 10
384.7579792519
 20
5.1480142988
 40
6.5
100
AcDbArc
 50
270.0
 51
360.0
  0
CIRCLE
  5
331
100
AcDbEntity
  8
0
100
AcDbCircle
 62
7
  6
CONTINUOUS
 10
370.5079792519
 20
18.3146142988
 40
6.3498635738
  0
ARC
  5
332
100
AcDbEntity
  8
0
100
AcDbCircle
 62
7
  6
CONTINUOUS
 10
379.8831852455
 20
10.0230142988
 40
5.1250783465
100
AcDbArc
 50
270.0
 51
360.0
  0
ARC
  5
333
100
AcDbEntity
  8
0
100
AcDbCircle
 62
7
  6
CONTINUOUS
 10
384.7579792519
 20
5.1480142988
 40
5.0
100
AcDbArc
 50
270.0
 51
360.0
  0
ARC
  5
334
100
AcDbEntity
  8
3_ALL_AXIS
100
AcDbCircle
 62
7
  6
CONTINUOUS
 10
384.7579792519
 20
24.3977465603
 40
5.0
100
AcDbArc
 50
0.0
 51
43.7845869472
  0
ARC
  5
335
100
AcDbEntity
  8
0
100
AcDbCircle
 62
9
  6
CONTINUOUS
 10
384.7579792519
 20
5.1480142988
 40
3.9999910883
100
AcDbArc
 50
270.0
 51
360.0
  0
ARC
  5
336
100
AcDbEntity
  8
0
100
AcDbCircle
 62
9
  6
CONTINUOUS
 10
384.7579792519
 20
24.3977465603
 40
3.9999858467
100
AcDbArc
 50
0.0
 51
43.7845869472
  0
CIRCLE
  5
337
100
AcDbEntity
  8
3_ALL_AXIS
100
AcDbCircle
 62
7
  6
CONTINUOUS
 10
370.5079792519
 20
18.3146142988
 40
2.5
  0
CIRCLE
  5
338
100
AcDbEntity
  8
3_ALL_AXIS
100
AcDbCircle
 62
7
  6
CONTINUOUS
 10
339.7425792519
 20
63.9980142988
 40
2.5
  0
CIRCLE
  5
339
100
AcDbEntity
  8
3_ALL_AXIS
100
AcDbCircle
 62
7
  6
CONTINUOUS
 10
322.4517792519
 20
52.1736142988
 40
2.5
  0
CIRCLE
  5
33A
100
AcDbEntity
  8
3_ALL_AXIS
100
AcDbCircle
 62
7
  6
CONTINUOUS
 10
299.7880792519
 20
38.1981142988
 40
2.5
  0
CIRCLE
  5
33B
100
AcDbEntity
  8
3_ALL_AXIS
100
AcDbCircle
 62
7
  6
CONTINUOUS
 10
255.5079792519
 20
12.1480142988
 40
2.5
  0
ARC
  5
33C
100
AcDbEntity
  8
0
100
AcDbCircle
 62
7
  6
CONTINUOUS
 10
255.5079792519
 20
128.6480142988
 40
125.5
100
AcDbArc
 50
326.5262578851
 51
213.4737421149
  0
ARC
  5
33D
100
AcDbEntity
  8
0
100
AcDbCircle
 62
9
  6
CONTINUOUS
 10
255.5079792519
 20
128.6480142988
 40
124.5
100
AcDbArc
 50
326.6305351371
 51
213.3694097089
  0
ARC
  5
33E
100
AcDbEntity
  8
0
100
AcDbCircle
 62
7
  6
CONTINUOUS
 10
255.5079792519
 20
128.6480142988
 40
122.5
100
AcDbArc
 50
326.843402709
 51
213.1566132265
  0
ARC
  5
33F
100
AcDbEntity
  8
0
100
AcDbCircle
 62
7
  6
CONTINUOUS
 10
255.5079792519
 20
128.6480142988
 40
122.25
100
AcDbArc
 50
326.8702873108
 51
213.1297126892
  0
ARC
  5
340
100
AcDbEntity
  8
0
100
AcDbCircle
 62
9
  6
CONTINUOUS
 10
255.5079792519
 20
128.6480142988
 40
117.8566017178
100
AcDbArc
 50
268.9718024268
 51
271.0281975732
  0
ARC
  5
341
100
AcDbEntity
  8
0
100
AcDbCircle
 62
9
  6
CONTINUOUS
 10
255.5079792519
 20
128.6480142988
 40
117.8566017178
100
AcDbArc
 50
327.3663103928
 51
212.6336896072
  0
ARC
  5
342
100
AcDbEntity
  8
0
100
AcDbCircle
 62
9
  6
CONTINUOUS
 10
255.5079792519
 20
128.6480142988
 40
84.8690198445
100
AcDbArc
 50
222.6887736693
 51
317.3112263307
  0
ARC
  5
343
100
AcDbEntity
  8
0
100
AcDbCircle
 62
9
  6
CONTINUOUS
 10
255.5079792519
 20
128.6480142988
 40
84.8690198445
100
AcDbArc
 50
320.8593620838
 51
219.1403612718
  0
ARC
  5
344
100
AcDbEntity
  8
0
100
AcDbCircle
 62
9
  6
CONTINUOUS
 10
255.5079792519
 20
112.2139142988
 40
77.2500005223
100
AcDbArc
 50
211.7176792879
 51
328.2823207121
  0
ARC
  5
345
100
AcDbEntity
  8
3_ALL_AXIS
100
AcDbCircle
 62
7
  6
CONTINUOUS
 10
255.5079792519
 20
112.2139142988
 40
76.25
100
AcDbArc
 50
211.7176792879
 51
328.2823207121
  0
ARC
  5
346
100
AcDbEntity
  8
0
100
AcDbCircle
 62
7
  6
CONTINUOUS
 10
255.5079792519
 20
112.2139142988
 40
74.75
100
AcDbArc
 50
211.7176792879
 51
328.2823207121
  0
CIRCLE
  5
347
100
AcDbEntity
  8
0
100
AcDbCircle
 62
9
  6
CONTINUOUS
 10
255.5079792519
 20
128.6480142988
 40
69.8931671334
  0
CIRCLE
  5
348
100
AcDbEntity
  8
0
100
AcDbCircle
 62
7
  6
CONTINUOUS
 10
255.5079792519
 20
128.6480142988
 40
49.5
  0
CIRCLE
  5
349
100
AcDbEntity
  8
0
100
AcDbCircle
 62
9
  6
CONTINUOUS
 10
255.5079792519
 20
128.6480142988
 40
48.5
  0
CIRCLE
  5
34A
100
AcDbEntity
  8
0
100
AcDbCircle
 62
9
  6
CONTINUOUS
 10
255.5079792519
 20
128.6480142988
 40
47.6
  0
CIRCLE
  5
34B
100
AcDbEntity
  8
0
100
AcDbCircle
 62
7
  6
CONTINUOUS
 10
255.5079792519
 20
128.6480142988
 40
47.4
  0
CIRCLE
  5
34C
100
AcDbEntity
  8
0
100
AcDbCircle
 62
7
  6
CONTINUOUS
 10
255.5079792519
 20
128.6480142988
 40
46.625
  0
CIRCLE
  5
34D
100
AcDbEntity
  8
FASEN
100
AcDbCircle
 62
7
  6
CONTINUOUS
 10
255.5079792519
 20
128.6480142988
 40
29.5
  0
CIRCLE
  5
34E
100
AcDbEntity
  8
FASEN
100
AcDbCircle
 62
7
  6
CONTINUOUS
 10
255.5079792519
 20
128.6480142988
 40
19.5
  0
ARC
  5
34F
100
AcDbEntity
  8
0
100
AcDbCircle
 62
7
  6
CONTINUOUS
 10
324.6232046888
 20
69.4980142988
 40
6.5
100
AcDbArc
 50
90.0
 51
148.2823207121
  0
ARC
  5
350
100
AcDbEntity
  8
0
100
AcDbCircle
 62
7
  6
CONTINUOUS
 10
341.531660905
 20
69.4980142988
 40
6.5
100
AcDbArc
 50
43.7845869472
 51
90.0
  0
ARC
  5
351
100
AcDbEntity
  8
3_ALL_AXIS
100
AcDbCircle
 62
7
  6
CONTINUOUS
 10
341.531660905
 20
69.4980142988
 40
5.0
100
AcDbArc
 50
43.7845869472
 51
90.0
  0
ARC
  5
352
100
AcDbEntity
  8
3_ALL_AXIS
100
AcDbCircle
 62
7
  6
CONTINUOUS
 10
324.6232046888
 20
69.4980142988
 40
5.0
100
AcDbArc
 50
90.0
 51
148.2823207121
  0
ARC
  5
353
100
AcDbEntity
  8
0
100
AcDbCircle
 62
9
  6
CONTINUOUS
 10
324.6232046888
 20
69.4980142988
 40
3.9999964747
100
AcDbArc
 50
90.0
 51
148.2823207121
  0
ARC
  5
354
100
AcDbEntity
  8
0
100
AcDbCircle
 62
9
  6
CONTINUOUS
 10
341.531660905
 20
69.4980142988
 40
3.9999820076
100
AcDbArc
 50
43.7845869472
 51
90.0
  0
ARC
  5
355
100
AcDbEntity
  8
0
100
AcDbCircle
 62
7
  6
CONTINUOUS
 10
598.1863687067
 20
338.7397721233
 40
12.0
100
AcDbArc
 50
226.0000000001
 51
270.0
  0
ARC
  5
356
100
AcDbEntity
  8
0
100
AcDbCircle
 62
7
  6
CONTINUOUS
 10
514.2337239228
 20
401.7397721233
 40
1.0
100
AcDbArc
 50
46.0000000025
 51
90.0
  0
ARC
  5
357
100
AcDbEntity
  8
0
100
AcDbCircle
 62
7
  6
CONTINUOUS
 10
598.1863687067
 20
565.7397721233
 40
12.0
100
AcDbArc
 50
90.0
 51
133.9999999999
  0
ARC
  5
358
100
AcDbEntity
  8
0
100
AcDbCircle
 62
7
  6
CONTINUOUS
 10
514.2337239228
 20
502.7397721233
 40
1.0
100
AcDbArc
 50
270.0
 51
313.9999999975
  0
ARC
  5
359
100
AcDbEntity
  8
0
100
AcDbCircle
 62
7
  6
CONTINUOUS
 10
659.4586206392
 20
388.5839557144
 40
30.0
100
AcDbArc
 50
315.0
 51
318.3996654013
  0
ARC
  5
35A
100
AcDbEntity
  8
0
100
AcDbCircle
 62
7
  6
CONTINUOUS
 10
637.0776404836
 20
344.9897721233
 40
15.0
100
AcDbArc
 50
270.0
 51
315.0
  0
ARC
  5
35B
100
AcDbEntity
  8
3_ALL_AXIS
100
AcDbCircle
 62
7
  6
CONTINUOUS
 10
694.0377501486
 20
352.2397721233
 40
5.75
100
AcDbArc
 50
295.7714617406
 51
64.2285382594
  0
ARC
  5
35C
100
AcDbEntity
  8
3_ALL_AXIS
100
AcDbCircle
 62
7
  6
CONTINUOUS
 10
694.0377501486
 20
352.2397721233
 40
5.75
100
AcDbArc
 50
115.7714617406
 51
244.2285382594
  0
ARC
  5
35D
100
AcDbEntity
  8
0
100
AcDbCircle
 62
7
  6
CONTINUOUS
 10
702.0377501486
 20
343.881709331
 40
5.0
100
AcDbArc
 50
316.5565674713
 51
360.0
  0
ARC
  5
35E
100
AcDbEntity
  8
3_ALL_AXIS
100
AcDbCircle
 62
7
  6
CONTINUOUS
 10
698.1377501486
 20
422.2397721233
 40
5.0
100
AcDbArc
 50
210.0
 51
150.0
  0
ARC
  5
35F
100
AcDbEntity
  8
3_ALL_AXIS
100
AcDbCircle
 62
7
  6
CONTINUOUS
 10
694.0377501486
 20
364.2397721233
 40
2.5
100
AcDbArc
 50
0.0
 51
180.0
  0
ARC
  5
360
100
AcDbEntity
  8
3_ALL_AXIS
100
AcDbCircle
 62
7
  6
CONTINUOUS
 10
694.0377501486
 20
340.2397721233
 40
2.5
100
AcDbArc
 50
180.0
 51
360.0
  0
ARC
  5
361
100
AcDbEntity
  8
3_ALL_AXIS
100
AcDbCircle
 62
7
  6
CONTINUOUS
 10
691.1377501486
 20
422.2397721233
 40
2.5
100
AcDbArc
 50
90.0
 51
270.0
  0
ARC
  5
362
100
AcDbEntity
  8
0
100
AcDbCircle
 62
7
  6
CONTINUOUS
 10
682.8877501486
 20
317.4897721233
 40
1.0
100
AcDbArc
 50
180.0
 51
270.0
  0
ARC
  5
363
100
AcDbEntity
  8
0
100
AcDbCircle
 62
7
  6
CONTINUOUS
 10
722.1377501486
 20
403.7397721233
 40
1.0
100
AcDbArc
 50
270.0
 51
360.0
  0
ARC
  5
364
100
AcDbEntity
  8
0
100
AcDbCircle
 62
7
  6
CONTINUOUS
 10
620.6377501486
 20
327.7397721233
 40
1.0
100
AcDbArc
 50
270.0
 51
360.0
  0
ARC
  5
365
100
AcDbEntity
  8
0
100
AcDbCircle
 62
7
  6
CONTINUOUS
 10
659.4586206392
 20
515.8955885321
 40
30.0
100
AcDbArc
 50
41.6003345987
 51
45.0
  0
ARC
  5
366
100
AcDbEntity
  8
0
100
AcDbCircle
 62
7
  6
CONTINUOUS
 10
637.0776404836
 20
559.4897721233
 40
15.0
100
AcDbArc
 50
45.0
 51
90.0
  0
ARC
  5
367
100
AcDbEntity
  8
3_ALL_AXIS
100
AcDbCircle
 62
7
  6
CONTINUOUS
 10
694.0377501486
 20
552.2397721233
 40
5.75
100
AcDbArc
 50
115.7714617406
 51
244.2285382594
  0
ARC
  5
368
100
AcDbEntity
  8
3_ALL_AXIS
100
AcDbCircle
 62
7
  6
CONTINUOUS
 10
694.0377501486
 20
552.2397721233
 40
5.75
100
AcDbArc
 50
295.7714617406
 51
64.2285382594
  0
ARC
  5
369
100
AcDbEntity
  8
0
100
AcDbCircle
 62
7
  6
CONTINUOUS
 10
702.0377501486
 20
560.5978349155
 40
5.0
100
AcDbArc
 50
0.0
 51
43.4434325287
  0
ARC
  5
36A
100
AcDbEntity
  8
3_ALL_AXIS
100
AcDbCircle
 62
7
  6
CONTINUOUS
 10
698.1377501486
 20
482.2397721233
 40
5.0
100
AcDbArc
 50
210.0
 51
150.0
  0
ARC
  5
36B
100
AcDbEntity
  8
3_ALL_AXIS
100
AcDbCircle
 62
7
  6
CONTINUOUS
 10
694.0377501486
 20
564.2397721233
 40
2.5
100
AcDbArc
 50
0.0
 51
180.0
  0
ARC
  5
36C
100
AcDbEntity
  8
3_ALL_AXIS
100
AcDbCircle
 62
7
  6
CONTINUOUS
 10
694.0377501486
 20
540.2397721233
 40
2.5
100
AcDbArc
 50
180.0
 51
360.0
  0
ARC
  5
36D
100
AcDbEntity
  8
3_ALL_AXIS
100
AcDbCircle
 62
7
  6
CONTINUOUS
 10
691.1377501486
 20
482.2397721233
 40
2.5
100
AcDbArc
 50
90.0
 51
270.0
  0
ARC
  5
36E
100
AcDbEntity
  8
0
100
AcDbCircle
 62
7
  6
CONTINUOUS
 10
682.8877501486
 20
586.9897721233
 40
1.0
100
AcDbArc
 50
90.0
 51
180.0
  0
ARC
  5
36F
100
AcDbEntity
  8
0
100
AcDbCircle
 62
7
  6
CONTINUOUS
 10
722.1377501486
 20
500.7397721233
 40
1.0
100
AcDbArc
 50
0.0
 51
90.0
  0
ARC
  5
370
100
AcDbEntity
  8
0
100
AcDbCircle
 62
7
  6
CONTINUOUS
 10
620.6377501486
 20
576.7397721233
 40
1.0
100
AcDbArc
 50
0.0
 51
90.0
  0
SPLINE
  5
371
100
AcDbEntity
  8
0
100
AcDbSpline
 62
9
  6
CONTINUOUS
 70
0
 71
3
 72
11
 73
7
 74
0
 42
0.0000001
 43
0.0000001
 44
0.0000000001
 40
0.0
 40
0.0
 40
0.0
 40
0.0
 40
0.2069571689
 40
0.4413629666
 40
0.7098382993
 40
1.0
 40
1.0
 40
1.0
 40
1.0
 10
681.8877501486
 20
28.2034660008
 30
0.0
 10
681.8877501486
 20
28.2953064398
 30
0.0
 10
681.9493284596
 20
28.4933919528
 30
0.0
 10
682.1827472192
 20
28.7182732561
 30
0.0
 10
682.5095708517
 20
28.8625874774
 30
0.0
 10
682.758986414
 20
28.89541499
 30
0.0
 10
682.8877501486
 20
28.89541499
 30
0.0
  0
SPLINE
  5
372
100
AcDbEntity
  8
0
100
AcDbSpline
 62
9
  6
CONTINUOUS
 70
0
 71
3
 72
11
 73
7
 74
0
 42
0.0000001
 43
0.0000001
 44
0.0000000001
 40
0.0
 40
0.0
 40
0.0
 40
0.0
 40
0.2069571686
 40
0.4413629665
 40
0.7098382996
 40
1.0
 40
1.0
 40
1.0
 40
1.0
 10
681.8877501486
 20
73.3037337393
 30
0.0
 10
681.8877501486
 20
73.3955741782
 30
0.0
 10
681.9493284594
 20
73.5936596912
 30
0.0
 10
682.1827472191
 20
73.8185409947
 30
0.0
 10
682.5095708517
 20
73.9628552159
 30
0.0
 10
682.7589864141
 20
73.9956827288
 30
0.0
 10
682.8877501486
 20
73.9956827288
 30
0.0
  0
SPLINE
  5
373
100
AcDbEntity
  8
0
100
AcDbSpline
 62
7
  6
CONTINUOUS
 70
0
 71
3
 72
11
 73
7
 74
0
 42
0.0000001
 43
0.0000001
 44
0.0000000001
 40
0.0
 40
0.0
 40
0.0
 40
0.0
 40
0.2500002923
 40
0.5000004566
 40
0.7500004116
 40
1.0
 40
1.0
 40
1.0
 40
1.0
 10
588.9741422908
 20
243.1480142988
 30
0.0
 10
585.8376103643
 20
239.9395926664
 30
0.0
 10
579.5790848413
 20
233.5085119598
 30
0.0
 10
570.2475748186
 20
223.8073967654
 30
0.0
 10
560.9900868265
 20
214.035577459
 30
0.0
 10
554.8852043197
 20
207.4581812736
 30
0.0
 10
551.8562633929
 20
204.1480142988
 30
0.0
  0
ENDSEC
  0
SECTION
  2
OBJECTS
  0
DICTIONARY
  5
C
100
AcDbDictionary
280
0
281
1
  3
ACAD_GROUP
350
D
  3
ACAD_MLINESTYLE
350
17
  3
ACAD_LAYOUT
350
1A
  3
ACAD_PLOTSETTINGS
350
19
  3
ACAD_PLOTSTYLENAME
350
E
  0
DICTIONARY
  5
D
102
{ACAD_REACTORS
330
C
102
}
100
AcDbDictionary
280
0
281
1
  0
ACDBDICTIONARYWDFLT
  5
E
102
{ACAD_REACTORS
330
C
102
}
100
AcDbDictionary
281
1
  3
Normal
350
F
100
AcDbDictionaryWithDefault
340
F
  0
DICTIONARY
  5
17
102
{ACAD_REACTORS
330
C
102
}
100
AcDbDictionary
280
0
281
1
  3
Standard
350
18
  0
DICTIONARY
  5
19
102
{ACAD_REACTORS
330
C
102
}
100
AcDbDictionary
281
1
  0
DICTIONARY
  5
1A
102
{ACAD_REACTORS
330
C
102
}
100
AcDbDictionary
281
1
  3
Model
350
374
  3
Layout1
350
375
  0
ACDBPLACEHOLDER
  5
F
102
{ACAD_REACTORS
330
E
102
}
  0
MLINESTYLE
  5
18
102
{ACAD_REACTORS
330
17
102
}
100
AcDbMlineStyle
  2
STANDARD
 70
0
  3

 62
256
 51
90.0
 52
90.0
 71
2
 49
0.5
 62
256
  6
BYLAYER
 49
-0.5
 62
256
  6
BYLAYER
  0
LAYOUT
  5
374
102
{ACAD_REACTORS
330
1A
102
}
100
AcDbPlotSettings
  1

  2
none_device
  4
ISO_A4_(297.00_x_210.00_MM)
  6

 40
0.0
 41
0.0
 42
0.0
 43
0.0
 44
297.0
 45
210.0
 46
0.0
 47
0.0
 48
0.0
 49
0.0
140
0.0
141
0.0
142
1.0
143
1.0
 70
1024
 72
1
 73
0
 74
0
  7

 75
0
147
1.0
148
0.0
149
0.0
100
AcDbLayout
  1
Model
 70
0
 71
0
 10
0.0
 20
0.0
 11
297.0
 21
210.0
 12
0.0
 22
0.0
 32
0.0
 14
0.0
 24
0.0
 34
0.0
 15
0.0
 25
0.0
 35
0.0
146
0.0
 13
0.0
 23
0.0
 33
0.0
 16
1.0
 26
0.0
 36
0.0
 17
0.0
 27
1.0
 37
0.0
 76
0
330
22B
345
0
346
0
  0
LAYOUT
  5
375
102
{ACAD_REACTORS
330
1A
102
}
100
AcDbPlotSettings
  1

  2
none_device
  4
ISO_A4_(297.00_x_210.00_MM)
  6

 40
0.0
 41
0.0
 42
0.0
 43
0.0
 44
297.0
 45
210.0
 46
0.0
 47
0.0
 48
0.0
 49
0.0
140
0.0
141
0.0
142
1.0
143
1.0
 70
0
 72
1
 73
0
 74
0
  7

 75
0
147
1.0
148
0.0
149
0.0
100
AcDbLayout
  1
Layout1
 70
0
 71
1
 10
0.0
 20
0.0
 11
297.0
 21
210.0
 12
0.0
 22
0.0
 32
0.0
 14
0.0
 24
0.0
 34
0.0
 15
0.0
 25
0.0
 35
0.0
146
0.0
 13
0.0
 23
0.0
 33
0.0
 16
1.0
 26
0.0
 36
0.0
 17
0.0
 27
1.0
 37
0.0
 76
0
330
22C
345
0
346
0
  0
ENDSEC
  0
EOF
