  0
SECTION
  2
HEADER
  9
$ACADVER
  1
AC1015
  9
$ACADMAINTVER
 70
     6
  9
$DWGCODEPAGE
  3
ANSI_1250
  9
$INSBASE
 10
0.0
 20
0.0
 30
0.0
  9
$EXTMIN
 10
203.6186186928
 20
53.84988654643581
 30
0.0
  9
$EXTMAX
 10
488.2840002645353
 20
314.644057598741
 30
0.0
  9
$LIMMIN
 10
253.1362446530379
 20
142.3863080738663
  9
$LIMMAX
 10
393.4668963826305
 20
258.6963977956908
  9
$ORTHOMODE
 70
     0
  9
$REGENMODE
 70
     1
  9
$FILLMODE
 70
     1
  9
$QTEXTMODE
 70
     0
  9
$MIRRTEXT
 70
     0
  9
$LTSCALE
 40
32.67
  9
$ATTMODE
 70
     1
  9
$TEXTSIZE
 40
0.2
  9
$TRACEWID
 40
0.05
  9
$TEXTSTYLE
  7
STANDARD
  9
$CLAYER
  8
0
  9
$CELTYPE
  6
BYLAYER
  9
$CECOLOR
 62
   256
  9
$CELTSCALE
 40
1.0
  9
$DISPSILH
 70
     0
  9
$DIMSCALE
 40
1.0
  9
$DIMASZ
 40
3.5
  9
$DIMEXO
 40
0.0
  9
$DIMDLI
 40
22.572
  9
$DIMRND
 40
0.0
  9
$DIMDLE
 40
0.0
  9
$DIMEXE
 40
1.0
  9
$DIMTP
 40
0.04
  9
$DIMTM
 40
0.04
  9
$DIMTXT
 40
2.5
  9
$DIMCEN
 40
5.346
  9
$DIMTSZ
 40
0.0
  9
$DIMTOL
 70
     1
  9
$DIMLIM
 70
     0
  9
$DIMTIH
 70
     1
  9
$DIMTOH
 70
     1
  9
$DIMSE1
 70
     0
  9
$DIMSE2
 70
     0
  9
$DIMTAD
 70
     0
  9
$DIMZIN
 70
     0
  9
$DIMBLK
  1
FILLED
  9
$DIMASO
 70
     1
  9
$DIMSHO
 70
     1
  9
$DIMPOST
  1

  9
$DIMAPOST
  1

  9
$DIMALT
 70
     0
  9
$DIMALTD
 70
     2
  9
$DIMALTF
 40
25.4
  9
$DIMLFAC
 40
1.0
  9
$DIMTOFL
 70
     0
  9
$DIMTVP
 40
0.0
  9
$DIMTIX
 70
     0
  9
$DIMSOXD
 70
     0
  9
$DIMSAH
 70
     0
  9
$DIMBLK1
  1

  9
$DIMBLK2
  1

  9
$DIMSTYLE
  2
STANDARD
  9
$DIMCLRD
 70
     0
  9
$DIMCLRE
 70
     0
  9
$DIMCLRT
 70
     0
  9
$DIMTFAC
 40
1.0
  9
$DIMGAP
 40
0.625
  9
$DIMJUST
 70
     0
  9
$DIMSD1
 70
     0
  9
$DIMSD2
 70
     0
  9
$DIMTOLJ
 70
     1
  9
$DIMTZIN
 70
     0
  9
$DIMALTZ
 70
     0
  9
$DIMALTTZ
 70
     0
  9
$DIMUPT
 70
     0
  9
$DIMDEC
 70
     4
  9
$DIMTDEC
 70
     4
  9
$DIMALTU
 70
     2
  9
$DIMALTTD
 70
     2
  9
$DIMTXSTY
  7
STANDARD
  9
$DIMAUNIT
 70
     0
  9
$DIMADEC
 70
     0
  9
$DIMALTRND
 40
0.0
  9
$DIMAZIN
 70
     0
  9
$DIMDSEP
 70
    44
  9
$DIMATFIT
 70
     3
  9
$DIMFRAC
 70
     0
  9
$DIMLDRBLK
  1

  9
$DIMLUNIT
 70
     2
  9
$DIMLWD
 70
    -2
  9
$DIMLWE
 70
    -2
  9
$DIMTMOVE
 70
     0
  9
$LUNITS
 70
     2
  9
$LUPREC
 70
     4
  9
$SKETCHINC
 40
0.1
  9
$FILLETRAD
 40
0.0
  9
$AUNITS
 70
     0
  9
$AUPREC
 70
     0
  9
$MENU
  1
.
  9
$ELEVATION
 40
0.0
  9
$PELEVATION
 40
0.0
  9
$THICKNESS
 40
0.0
  9
$LIMCHECK
 70
     0
  9
$CHAMFERA
 40
0.0
  9
$CHAMFERB
 40
0.0
  9
$CHAMFERC
 40
0.0
  9
$CHAMFERD
 40
0.0
  9
$SKPOLY
 70
     0
  9
$TDCREATE
 40
2457062.047471898
  9
$TDUCREATE
 40
2457062.005805232
  9
$TDUPDATE
 40
2457092.454308808
  9
$TDUUPDATE
 40
2457092.412642141
  9
$TDINDWG
 40
0.0129615394
  9
$TDUSRTIMER
 40
2457092.411768947
  9
$USRTIMER
 70
     1
  9
$ANGBASE
 50
0.0
  9
$ANGDIR
 70
     0
  9
$PDMODE
 70
     3
  9
$PDSIZE
 40
6.0
  9
$PLINEWID
 40
0.0
  9
$SPLFRAME
 70
     0
  9
$SPLINETYPE
 70
     6
  9
$SPLINESEGS
 70
     8
  9
$HANDSEED
  5
AC4
  9
$SURFTAB1
 70
     6
  9
$SURFTAB2
 70
     6
  9
$SURFTYPE
 70
     6
  9
$SURFU
 70
     6
  9
$SURFV
 70
     6
  9
$UCSBASE
  2

  9
$UCSNAME
  2

  9
$UCSORG
 10
0.0
 20
0.0
 30
0.0
  9
$UCSXDIR
 10
1.0
 20
0.0
 30
0.0
  9
$UCSYDIR
 10
0.0
 20
1.0
 30
0.0
  9
$UCSORTHOREF
  2

  9
$UCSORTHOVIEW
 70
     0
  9
$UCSORGTOP
 10
0.0
 20
0.0
 30
0.0
  9
$UCSORGBOTTOM
 10
0.0
 20
0.0
 30
0.0
  9
$UCSORGLEFT
 10
0.0
 20
0.0
 30
0.0
  9
$UCSORGRIGHT
 10
0.0
 20
0.0
 30
0.0
  9
$UCSORGFRONT
 10
0.0
 20
0.0
 30
0.0
  9
$UCSORGBACK
 10
0.0
 20
0.0
 30
0.0
  9
$PUCSBASE
  2

  9
$PUCSNAME
  2

  9
$PUCSORG
 10
0.0
 20
0.0
 30
0.0
  9
$PUCSXDIR
 10
1.0
 20
0.0
 30
0.0
  9
$PUCSYDIR
 10
0.0
 20
1.0
 30
0.0
  9
$PUCSORTHOREF
  2

  9
$PUCSORTHOVIEW
 70
     0
  9
$PUCSORGTOP
 10
0.0
 20
0.0
 30
0.0
  9
$PUCSORGBOTTOM
 10
0.0
 20
0.0
 30
0.0
  9
$PUCSORGLEFT
 10
0.0
 20
0.0
 30
0.0
  9
$PUCSORGRIGHT
 10
0.0
 20
0.0
 30
0.0
  9
$PUCSORGFRONT
 10
0.0
 20
0.0
 30
0.0
  9
$PUCSORGBACK
 10
0.0
 20
0.0
 30
0.0
  9
$USERI1
 70
     0
  9
$USERI2
 70
     0
  9
$USERI3
 70
     0
  9
$USERI4
 70
     0
  9
$USERI5
 70
     0
  9
$USERR1
 40
0.0
  9
$USERR2
 40
0.0
  9
$USERR3
 40
0.0
  9
$USERR4
 40
0.0
  9
$USERR5
 40
0.0
  9
$WORLDVIEW
 70
     1
  9
$SHADEDGE
 70
     3
  9
$SHADEDIF
 70
    70
  9
$TILEMODE
 70
     1
  9
$MAXACTVP
 70
    64
  9
$PINSBASE
 10
0.0
 20
0.0
 30
0.0
  9
$PLIMCHECK
 70
     0
  9
$PEXTMIN
 10
1.000000000000000E+20
 20
1.000000000000000E+20
 30
1.000000000000000E+20
  9
$PEXTMAX
 10
-1.000000000000000E+20
 20
-1.000000000000000E+20
 30
-1.000000000000000E+20
  9
$PLIMMIN
 10
0.0
 20
0.0
  9
$PLIMMAX
 10
594.0
 20
420.0
  9
$UNITMODE
 70
     0
  9
$VISRETAIN
 70
     1
  9
$PLINEGEN
 70
     0
  9
$PSLTSCALE
 70
     1
  9
$TREEDEPTH
 70
  3020
  9
$CMLSTYLE
  2
Standard
  9
$CMLJUST
 70
     0
  9
$CMLSCALE
 40
1.0
  9
$PROXYGRAPHICS
 70
     1
  9
$MEASUREMENT
 70
     1
  9
$CELWEIGHT
370
    -1
  9
$ENDCAPS
280
     0
  9
$JOINSTYLE
280
     0
  9
$LWDISPLAY
290
     0
  9
$INSUNITS
 70
     4
  9
$HYPERLINKBASE
  1

  9
$STYLESHEET
  1

  9
$XEDIT
290
     1
  9
$CEPSNTYPE
380
     0
  9
$PSTYLEMODE
290
     1
  9
$FINGERPRINTGUID
  2
{15C58F25-43E2-4592-9072-F2601EE00160}
  9
$VERSIONGUID
  2
{D3116A4A-C932-4310-96F4-2DF383BFD3C8}
  9
$EXTNAMES
290
     1
  9
$PSVPSCALE
 40
0.0
  9
$OLESTARTUP
290
     0
  0
ENDSEC
  0
SECTION
  2
CLASSES
  0
CLASS
  1
ACDBDICTIONARYWDFLT
  2
AcDbDictionaryWithDefault
  3
ObjectDBX Classes
 90
        0
280
     0
281
     0
  0
CLASS
  1
ACDBPLACEHOLDER
  2
AcDbPlaceHolder
  3
ObjectDBX Classes
 90
        0
280
     0
281
     0
  0
CLASS
  1
LAYOUT
  2
AcDbLayout
  3
ObjectDBX Classes
 90
        0
280
     0
281
     0
  0
CLASS
  1
MATERIAL
  2
AcDbMaterial
  3
ObjectDBX Classes
 90
     1153
280
     0
281
     0
  0
CLASS
  1
VISUALSTYLE
  2
AcDbVisualStyle
  3
ObjectDBX Classes
 90
     4095
280
     0
281
     0
  0
CLASS
  1
TABLESTYLE
  2
AcDbTableStyle
  3
ObjectDBX Classes
 90
     4095
280
     0
281
     0
  0
CLASS
  1
SCALE
  2
AcDbScale
  3
ObjectDBX Classes
 90
     1153
280
     0
281
     0
  0
CLASS
  1
MLEADERSTYLE
  2
AcDbMLeaderStyle
  3
ACDB_MLEADERSTYLE_CLASS
 90
     4095
280
     0
281
     0
  0
CLASS
  1
ACDBSECTIONVIEWSTYLE
  2
AcDbSectionViewStyle
  3
ObjectDBX Classes
 90
     1025
280
     1
281
     0
  0
CLASS
  1
ACDBDETAILVIEWSTYLE
  2
AcDbDetailViewStyle
  3
ObjectDBX Classes
 90
     1025
280
     1
281
     0
  0
CLASS
  1
DICTIONARYVAR
  2
AcDbDictionaryVar
  3
ObjectDBX Classes
 90
        0
280
     0
281
     0
  0
CLASS
  1
CELLSTYLEMAP
  2
AcDbCellStyleMap
  3
ObjectDBX Classes
 90
     1152
280
     0
281
     0
  0
CLASS
  1
SUN
  2
AcDbSun
  3
SCENEOE
 90
     1153
280
     0
281
     0
  0
CLASS
  1
RASTERVARIABLES
  2
AcDbRasterVariables
  3
ISM
 90
        0
280
     0
281
     0
  0
CLASS
  1
SORTENTSTABLE
  2
AcDbSortentsTable
  3
ObjectDBX Classes
 90
        0
280
     0
281
     0
  0
ENDSEC
  0
SECTION
  2
TABLES
  0
TABLE
  2
VPORT
  5
8
330
0
100
AcDbSymbolTable
 70
     1
  0
VPORT
  5
1F4
330
8
100
AcDbSymbolTableRecord
100
AcDbViewportTableRecord
  2
*ACTIVE
 70
     0
 10
0.0
 20
0.0
 11
1.0
 21
1.0
 12
409.2698977035305
 22
180.1028045597478
 13
0.0
 23
0.0
 14
1.0
 24
1.0
 15
0.0
 25
0.0
 16
0.0
 26
0.0
 36
1.0
 17
0.0
 27
0.0
 37
0.0
 40
250.7409542916143
 41
2.038655462184874
 42
50.0
 43
0.0
 44
0.0
 50
0.0
 51
0.0
 71
    16
 72
   100
 73
     1
 74
     1
 75
     0
 76
     0
 77
     0
 78
     0
281
     0
 65
     1
110
0.0
120
0.0
130
0.0
111
1.0
121
0.0
131
0.0
112
0.0
122
1.0
132
0.0
 79
     0
146
0.0
1001
ACAD_NAV_VCDISPLAY
1070
     3
  0
ENDTAB
  0
TABLE
  2
LTYPE
  5
5
330
0
100
AcDbSymbolTable
 70
     2
  0
LTYPE
  5
14
330
5
100
AcDbSymbolTableRecord
100
AcDbLinetypeTableRecord
  2
BYBLOCK
 70
     0
  3

 72
    65
 73
     0
 40
0.0
  0
LTYPE
  5
15
330
5
100
AcDbSymbolTableRecord
100
AcDbLinetypeTableRecord
  2
BYLAYER
 70
     0
  3

 72
    65
 73
     0
 40
0.0
  0
LTYPE
  5
16
330
5
100
AcDbSymbolTableRecord
100
AcDbLinetypeTableRecord
  2
CONTINUOUS
 70
     0
  3
Solid line
 72
    65
 73
     0
 40
0.0
  0
LTYPE
  5
1F5
330
5
100
AcDbSymbolTableRecord
100
AcDbLinetypeTableRecord
  2
CENTER
 70
     0
  3
____ _ ____ _ ____ _ ____ _ ____ _ ____ _ ____
 72
    65
 73
     4
 40
0.6
 49
0.375
 74
     0
 49
-0.075
 74
     0
 49
0.075
 74
     0
 49
-0.075
 74
     0
  0
ENDTAB
  0
TABLE
  2
LAYER
  5
2
330
0
100
AcDbSymbolTable
 70
     3
  0
LAYER
  5
10
102
{ACAD_XDICTIONARY
360
89A
102
}
330
2
100
AcDbSymbolTableRecord
100
AcDbLayerTableRecord
  2
0
 70
     0
 62
     7
  6
CONTINUOUS
370
    -3
390
F
  0
LAYER
  5
204
102
{ACAD_XDICTIONARY
360
8B0
102
}
330
2
100
AcDbSymbolTableRecord
100
AcDbLayerTableRecord
  2
02___PRT_ALL_AXES
 70
     0
 62
     7
  6
CONTINUOUS
370
    -3
390
F
  0
LAYER
  5
21B
102
{ACAD_XDICTIONARY
360
8DE
102
}
330
2
100
AcDbSymbolTableRecord
100
AcDbLayerTableRecord
  2
ALL_DETAIL_ITEM
 70
     0
 62
     7
  6
CONTINUOUS
370
    -3
390
F
  0
ENDTAB
  0
TABLE
  2
STYLE
  5
3
330
0
100
AcDbSymbolTable
 70
     1
  0
STYLE
  5
11
330
3
100
AcDbSymbolTableRecord
100
AcDbTextStyleTableRecord
  2
STANDARD
 70
     0
 40
0.0
 41
0.6
 50
0.0
 71
     0
 42
0.2
  3
txt
  4

  0
ENDTAB
  0
TABLE
  2
VIEW
  5
6
330
0
100
AcDbSymbolTable
 70
     0
  0
ENDTAB
  0
TABLE
  2
UCS
  5
7
330
0
100
AcDbSymbolTable
 70
     0
  0
ENDTAB
  0
TABLE
  2
APPID
  5
9
330
0
100
AcDbSymbolTable
 70
     4
  0
APPID
  5
232
330
9
100
AcDbSymbolTableRecord
100
AcDbRegAppTableRecord
  2
ACAD
 70
     0
  0
APPID
  5
86B
330
9
100
AcDbSymbolTableRecord
100
AcDbRegAppTableRecord
  2
ACAD_NAV_VCDISPLAY
 70
     0
  0
APPID
  5
898
330
9
100
AcDbSymbolTableRecord
100
AcDbRegAppTableRecord
  2
ACAD_EXEMPT_FROM_CAD_STANDARDS
 70
     0
  0
APPID
  5
95B
330
9
100
AcDbSymbolTableRecord
100
AcDbRegAppTableRecord
  2
ACAD_MLEADERVER
 70
     0
  0
ENDTAB
  0
TABLE
  2
DIMSTYLE
  5
A
330
0
100
AcDbSymbolTable
 70
     1
100
AcDbDimStyleTable
  0
DIMSTYLE
105
236
330
A
100
AcDbSymbolTableRecord
100
AcDbDimStyleTableRecord
  2
STANDARD
 70
     0
 41
3.5
 42
0.0
 44
1.0
 47
0.04
 48
0.04
 71
     1
 73
     0
 74
     0
 77
     1
 78
     8
140
2.5
147
0.625
178
     0
271
     1
272
     1
278
    44
284
     8
340
11
341
235
342
235
343
235
344
235
  0
ENDTAB
  0
TABLE
  2
BLOCK_RECORD
  5
1
330
0
100
AcDbSymbolTable
 70
     6
  0
BLOCK_RECORD
  5
233
330
1
100
AcDbSymbolTableRecord
100
AcDbBlockTableRecord
  2
*Model_Space
340
816
  0
BLOCK_RECORD
  5
234
330
1
100
AcDbSymbolTableRecord
100
AcDbBlockTableRecord
  2
*Paper_Space
340
817
  0
BLOCK_RECORD
  5
235
330
1
100
AcDbSymbolTableRecord
100
AcDbBlockTableRecord
  2
_FILLED
340
0
102
{BLKREFS
331
A97
331
A99
331
ABF
331
AC1
102
}
  0
BLOCK_RECORD
  5
A70
102
{ACAD_XDICTIONARY
360
A71
102
}
330
1
100
AcDbSymbolTableRecord
100
AcDbBlockTableRecord
  2
*U4
340
0
102
{BLKREFS
331
A6F
331
AAC
102
}
  0
BLOCK_RECORD
  5
A75
330
1
100
AcDbSymbolTableRecord
100
AcDbBlockTableRecord
  2
*U5
340
0
102
{BLKREFS
331
A74
331
A79
331
A7A
331
A7B
331
A7C
331
A7D
331
A7E
331
A7F
331
A80
331
A81
331
A82
331
A83
331
A74
331
A79
331
A7A
331
A7B
331
A7C
331
A7D
331
A7E
331
A7F
331
A80
331
A81
331
A82
331
A83
102
}
  0
ENDTAB
  0
ENDSEC
  0
SECTION
  2
BLOCKS
  0
BLOCK
  5
20
330
233
100
AcDbEntity
  8
0
100
AcDbBlockBegin
  2
*Model_Space
 70
     0
 10
0.0
 20
0.0
 30
0.0
  3
*Model_Space
  1
*Model_Space
  0
ENDBLK
  5
21
330
233
100
AcDbEntity
  8
0
100
AcDbBlockEnd
  0
BLOCK
  5
1C
330
234
100
AcDbEntity
 67
     1
  8
0
100
AcDbBlockBegin
  2
*Paper_Space
 70
     0
 10
0.0
 20
0.0
 30
0.0
  3
*Paper_Space
  1
*Paper_Space
  0
ENDBLK
  5
1D
330
234
100
AcDbEntity
 67
     1
  8
0
100
AcDbBlockEnd
  0
BLOCK
  5
237
330
235
100
AcDbEntity
  8
0
100
AcDbBlockBegin
  2
_FILLED
 70
     0
 10
0.0
 20
0.0
 30
0.0
  3
_FILLED
  1
_FILLED
  0
SOLID
  5
238
330
235
100
AcDbEntity
  8
0
  6
ByBlock
 62
     0
100
AcDbTrace
 10
0.0
 20
0.0
 30
0.0
 11
-1.0
 21
0.2142857143
 31
0.0
 12
-1.0
 22
-0.2142857143
 32
0.0
 13
-1.0
 23
-0.2142857143
 33
0.0
  0
ENDBLK
  5
239
330
235
100
AcDbEntity
  8
0
  6
ByBlock
 62
     0
100
AcDbBlockEnd
  0
BLOCK
  5
A73
330
A70
100
AcDbEntity
  8
0
100
AcDbBlockBegin
  2
*U4
 70
     1
 10
0.0
 20
0.0
 30
0.0
  3
*U4
  1
*U2
  0
INSERT
  5
A74
330
A70
100
AcDbEntity
  8
0
  6
ByBlock
 62
     0
370
    -2
380
     1
100
AcDbBlockReference
  2
*U5
 10
38.11155704772178
 20
-20.13557687428729
 30
0.0
  0
INSERT
  5
A79
330
A70
100
AcDbEntity
  8
0
  6
ByBlock
 62
     0
370
    -2
380
     1
100
AcDbBlockReference
  2
*U5
 10
42.26476953040417
 20
-35.63557687428728
 30
0.0
 50
29.99999999999996
  0
INSERT
  5
A7A
330
A70
100
AcDbEntity
  8
0
  6
ByBlock
 62
     0
370
    -2
380
     1
100
AcDbBlockReference
  2
*U5
 10
53.61155704772176
 20
-46.98236439160488
 30
0.0
 41
0.9999999999999998
 42
0.9999999999999998
 43
0.9999999999999998
 50
60.0
  0
INSERT
  5
A7B
330
A70
100
AcDbEntity
  8
0
  6
ByBlock
 62
     0
370
    -2
380
     1
100
AcDbBlockReference
  2
*U5
 10
69.11155704772177
 20
-51.1355768742873
 30
0.0
 50
90.0
  0
INSERT
  5
A7C
330
A70
100
AcDbEntity
  8
0
  6
ByBlock
 62
     0
370
    -2
380
     1
100
AcDbBlockReference
  2
*U5
 10
84.61155704772175
 20
-46.98236439160491
 30
0.0
 41
0.9999999999999998
 42
0.9999999999999998
 43
0.9999999999999998
 50
119.9999999999999
  0
INSERT
  5
A7D
330
A70
100
AcDbEntity
  8
0
  6
ByBlock
 62
     0
370
    -2
380
     1
100
AcDbBlockReference
  2
*U5
 10
95.95834456503935
 20
-35.63557687428735
 30
0.0
 50
149.9999999999999
  0
INSERT
  5
A7E
330
A70
100
AcDbEntity
  8
0
  6
ByBlock
 62
     0
370
    -2
380
     1
100
AcDbBlockReference
  2
*U5
 10
100.1115570477217
 20
-20.13557687428731
 30
0.0
 50
180.0
  0
INSERT
  5
A7F
330
A70
100
AcDbEntity
  8
0
  6
ByBlock
 62
     0
370
    -2
380
     1
100
AcDbBlockReference
  2
*U5
 10
95.95834456503935
 20
-4.63557687428733
 30
0.0
 50
210.0
  0
INSERT
  5
A80
330
A70
100
AcDbEntity
  8
0
  6
ByBlock
 62
     0
370
    -2
380
     1
100
AcDbBlockReference
  2
*U5
 10
84.61155704772179
 20
6.711210643030263
 30
0.0
 41
0.9999999999999998
 42
0.9999999999999998
 43
0.9999999999999998
 50
239.9999999999999
  0
INSERT
  5
A81
330
A70
100
AcDbEntity
  8
0
  6
ByBlock
 62
     0
370
    -2
380
     1
100
AcDbBlockReference
  2
*U5
 10
69.11155704772177
 20
10.86442312571268
 30
0.0
 50
269.9999999999999
  0
INSERT
  5
A82
330
A70
100
AcDbEntity
  8
0
  6
ByBlock
 62
     0
370
    -2
380
     1
100
AcDbBlockReference
  2
*U5
 10
53.6115570477218
 20
6.711210643030295
 30
0.0
 50
299.9999999999998
  0
INSERT
  5
A83
330
A70
100
AcDbEntity
  8
0
  6
ByBlock
 62
     0
370
    -2
380
     1
100
AcDbBlockReference
  2
*U5
 10
42.2647695304042
 20
-4.635576874287279
 30
0.0
 50
329.9999999999999
  0
ENDBLK
  5
A84
330
A70
100
AcDbEntity
  8
0
100
AcDbBlockEnd
  0
BLOCK
  5
A76
330
A75
100
AcDbEntity
  8
0
100
AcDbBlockBegin
  2
*U5
 70
     1
 10
0.0
 20
0.0
 30
0.0
  3
*U5
  1
*U3
  0
CIRCLE
  5
A77
330
A75
100
AcDbEntity
  8
0
100
AcDbCircle
 10
0.0
 20
0.0
 30
0.0
 40
0.6000000000000001
  0
ENDBLK
  5
A78
330
A75
100
AcDbEntity
  8
0
100
AcDbBlockEnd
  0
ENDSEC
  0
SECTION
  2
ENTITIES
  0
TEXT
  5
9F0
330
233
100
AcDbEntity
  8
ALL_DETAIL_ITEM
  6
Continuous
 62
     0
100
AcDbText
 10
263.7640954475914
 20
202.8931363657957
 30
0.0
 40
10.0
  1
M 1:10
 41
0.6
100
AcDbText
  0
LINE
  5
A9D
330
233
100
AcDbEntity
  8
0
  6
Continuous
 62
     0
100
AcDbLine
 10
375.8651188928649
 20
219.2594268819543
 30
0.0
 11
310.715118892865
 21
219.2594268819543
 31
0.0
  0
LINE
  5
A9E
330
233
100
AcDbEntity
  8
0
  6
Continuous
 62
     0
100
AcDbLine
 10
310.715118892865
 20
219.4594268819543
 30
0.0
 11
375.8651188928649
 21
219.4594268819543
 31
0.0
  0
LINE
  5
A9F
330
233
100
AcDbEntity
  8
0
  6
Continuous
 62
     0
100
AcDbLine
 10
343.2901188928649
 20
229.2594268819543
 30
0.0
 11
343.2901188928649
 21
219.2594268819543
 31
0.0
  0
LINE
  5
AA0
330
233
100
AcDbEntity
  8
02___PRT_ALL_AXES
  6
CENTER
 62
     0
100
AcDbLine
 10
343.2901188928649
 20
244.7594268819543
 30
0.0
 11
343.2901188928649
 21
218.7594268819543
 31
0.0
  0
LINE
  5
AA1
330
233
100
AcDbEntity
  8
0
  6
Continuous
 62
     0
100
AcDbLine
 10
315.015118892865
 20
244.0594268819543
 30
0.0
 11
315.015118892865
 21
219.4594268819543
 31
0.0
  0
LINE
  5
AA2
330
233
100
AcDbEntity
  8
0
  6
Continuous
 62
     0
100
AcDbLine
 10
310.715118892865
 20
219.4594268819543
 30
0.0
 11
310.715118892865
 21
219.2594268819543
 31
0.0
  0
LINE
  5
AA3
330
233
100
AcDbEntity
  8
0
  6
Continuous
 62
     0
100
AcDbLine
 10
310.715118892865
 20
244.2594268819543
 30
0.0
 11
375.8651188928649
 21
244.2594268819543
 31
0.0
  0
LINE
  5
AA4
330
233
100
AcDbEntity
  8
0
  6
Continuous
 62
     0
100
AcDbLine
 10
310.715118892865
 20
244.0594268819543
 30
0.0
 11
375.8651188928649
 21
244.0594268819543
 31
0.0
  0
LINE
  5
AA5
330
233
100
AcDbEntity
  8
0
  6
Continuous
 62
     0
100
AcDbLine
 10
310.715118892865
 20
244.0594268819543
 30
0.0
 11
310.715118892865
 21
244.2594268819543
 31
0.0
  0
LINE
  5
AA6
330
233
100
AcDbEntity
  8
02___PRT_ALL_AXES
  6
CENTER
 62
     0
100
AcDbLine
 10
312.2901188928648
 20
243.149343133413
 30
0.0
 11
312.2901188928648
 21
244.7594268819543
 31
0.0
  0
LINE
  5
AA7
330
233
100
AcDbEntity
  8
02___PRT_ALL_AXES
  6
CENTER
 62
     0
100
AcDbLine
 10
343.2901188928649
 20
212.5706845069118
 30
0.0
 11
343.2901188928648
 21
146.3706845069118
 31
0.0
  0
LINE
  5
AA8
330
233
100
AcDbEntity
  8
02___PRT_ALL_AXES
  6
CENTER
 62
     0
100
AcDbLine
 10
310.1901188928649
 20
179.4706845069118
 30
0.0
 11
376.3901188928648
 21
179.4706845069118
 31
0.0
  0
CIRCLE
  5
AA9
330
233
100
AcDbEntity
  8
0
 62
     0
100
AcDbCircle
 10
343.2901188928649
 20
179.4706845069118
 30
0.0
 40
28.075
  0
CIRCLE
  5
AAA
330
233
100
AcDbEntity
  8
0
 62
     0
100
AcDbCircle
 10
343.2901188928649
 20
179.4706845069118
 30
0.0
 40
32.575
  0
CIRCLE
  5
AAB
330
233
100
AcDbEntity
  8
02___PRT_ALL_AXES
  6
CENTER
 62
     0
100
AcDbCircle
 10
343.2901188928648
 20
179.4706845069118
 30
0.0
 40
30.99999999999998
  0
INSERT
  5
AAC
330
233
100
AcDbEntity
  8
0
 62
     0
100
AcDbBlockReference
  2
*U4
 10
271.3220102662287
 20
181.0327710363751
 30
0.0
 50
15.0
  0
LINE
  5
AAD
330
233
100
AcDbEntity
  8
02___PRT_ALL_AXES
  6
CENTER
 62
     0
100
AcDbLine
 10
374.2901188928648
 20
243.149343133413
 30
0.0
 11
374.2901188928648
 21
244.7594268819543
 31
0.0
  0
LINE
  5
AAE
330
233
100
AcDbEntity
  8
02___PRT_ALL_AXES
  6
CENTER
 62
     0
100
AcDbLine
 10
312.2901188928648
 20
220.3695106304957
 30
0.0
 11
312.2901188928648
 21
218.7594268819543
 31
0.0
  0
LINE
  5
AAF
330
233
100
AcDbEntity
  8
02___PRT_ALL_AXES
  6
CENTER
 62
     0
100
AcDbLine
 10
374.2901188928648
 20
220.3695106304957
 30
0.0
 11
374.2901188928648
 21
218.7594268819543
 31
0.0
  0
LINE
  5
AB0
330
233
100
AcDbEntity
  8
0
  6
Continuous
 62
     0
100
AcDbLine
 10
371.565118892865
 20
244.0594268819543
 30
0.0
 11
371.565118892865
 21
219.4594268819543
 31
0.0
  0
LINE
  5
AB1
330
233
100
AcDbEntity
  8
0
  6
Continuous
 62
     0
100
AcDbLine
 10
375.8651188928649
 20
219.4594268819543
 30
0.0
 11
375.8651188928649
 21
219.2594268819543
 31
0.0
  0
LINE
  5
AB2
330
233
100
AcDbEntity
  8
0
  6
Continuous
 62
     0
100
AcDbLine
 10
375.8651188928649
 20
244.0594268819543
 30
0.0
 11
375.8651188928649
 21
244.2594268819543
 31
0.0
  0
ARC
  5
AB3
330
233
100
AcDbEntity
  8
0
 62
     0
100
AcDbCircle
 10
343.2901188928649
 20
179.4706845069118
 30
0.0
 40
27.675
100
AcDbArc
 50
270.9316797492617
 51
89.06832025073793
  0
LINE
  5
AB4
330
233
100
AcDbEntity
  8
0
 62
     0
100
AcDbLine
 10
343.7401188928649
 20
207.5420778638508
 30
0.0
 11
343.7401188928649
 21
151.3992911499728
 31
0.0
  0
LINE
  5
AB5
330
233
100
AcDbEntity
  8
0
 62
     0
100
AcDbLine
 10
342.840118892865
 20
207.5420778638508
 30
0.0
 11
342.8401188928648
 21
151.3992911499728
 31
0.0
  0
ARC
  5
AB6
330
233
100
AcDbEntity
  8
0
 62
     0
100
AcDbCircle
 10
343.2901188928649
 20
179.4706845069118
 30
0.0
 40
27.675
100
AcDbArc
 50
90.93167974926209
 51
269.0683202507377
  0
LINE
  5
AB7
330
233
100
AcDbEntity
  8
0
  6
Continuous
 62
     0
100
AcDbLine
 10
316.0281720763743
 20
221.3094268819543
 30
0.0
 11
314.015118892865
 21
221.3094268819543
 31
0.0
  0
LINE
  5
AB8
330
233
100
AcDbEntity
  8
0
  6
Continuous
 62
     0
100
AcDbLine
 10
370.5520657093555
 20
221.3094268819543
 30
0.0
 11
372.565118892865
 21
221.3094268819543
 31
0.0
  0
CIRCLE
  5
AB9
330
233
100
AcDbEntity
  8
0
100
AcDbCircle
 10
343.2901188928649
 20
223.3594268819543
 30
0.0
 40
0.45
  0
LINE
  5
ABA
330
233
100
AcDbEntity
  8
0
100
AcDbLine
 10
343.8761632700425
 20
223.3594268819543
 30
0.0
 11
342.7040745156875
 21
223.3594268819543
 31
0.0
  0
LINE
  5
ABB
330
233
100
AcDbEntity
  8
0
100
AcDbLine
 10
340.4901188928649
 20
250.8594268819543
 30
0.0
 11
341.0537258237295
 21
244.2594268819543
 31
0.0
  0
LINE
  5
ABC
330
233
100
AcDbEntity
  8
0
100
AcDbLine
 10
346.090118892865
 20
250.8594268819543
 30
0.0
 11
345.5261188928649
 21
244.2594268819543
 31
0.0
  0
CIRCLE
  5
ABD
330
233
100
AcDbEntity
  8
0
100
AcDbCircle
 10
343.2901188928649
 20
223.3594268819543
 30
0.0
 40
0.4500000000000162
  0
ARC
  5
ABE
330
233
100
AcDbEntity
  8
0
100
AcDbCircle
 10
343.2901188928649
 20
223.3594268819543
 30
0.0
 40
27.64217791708895
100
AcDbArc
 50
95.81371717933492
 51
184.2530760114834
  0
INSERT
  5
ABF
330
233
100
AcDbEntity
  8
0
100
AcDbBlockReference
  2
_FILLED
 10
340.4901188928649
 20
250.8594268819544
 30
0.0
 41
3.499999999999998
 42
3.5
 43
3.5
 50
9.443485966215112
  0
ARC
  5
AC0
330
233
100
AcDbEntity
  8
0
100
AcDbCircle
 10
343.2901188928649
 20
223.3594268819543
 30
0.0
 40
27.64217791708895
100
AcDbArc
 50
355.7469239885165
 51
84.1862828206651
  0
INSERT
  5
AC1
330
233
100
AcDbEntity
  8
0
100
AcDbBlockReference
  2
_FILLED
 10
346.0901188928651
 20
250.8594268819544
 30
0.0
 41
-3.499999999999999
 42
3.5
 43
3.5
 50
350.5565140337849
  0
VIEWPORT
  5
984
330
234
100
AcDbEntity
 67
     1
  8
0
100
AcDbViewport
 10
297.0
 20
210.0
 30
0.0
 40
712.8
 41
504.0
 68
     1
 69
     1
 12
297.0
 22
210.0
 13
0.0
 23
0.0
 14
0.5
 24
0.5
 15
0.0
 25
0.0
 16
0.0
 26
0.0
 36
1.0
 17
0.0
 27
0.0
 37
0.0
 42
50.0
 43
0.0
 44
0.0
 45
504.0
 50
0.0
 51
0.0
 72
   100
 90
   557152
  1

281
     0
 71
     1
 74
     0
110
0.0
120
0.0
130
0.0
111
1.0
121
0.0
131
0.0
112
0.0
122
1.0
132
0.0
 79
     0
146
0.0
  0
VIEWPORT
  5
985
330
234
100
AcDbEntity
 67
     1
  8
0
100
AcDbViewport
 10
297.0
 20
210.0
 30
0.0
 40
475.2
 41
336.0
 68
     2
 69
     2
 12
345.9513094786677
 22
184.2469720725884
 13
0.0
 23
0.0
 14
0.5
 24
0.5
 15
0.0
 25
0.0
 16
0.0
 26
0.0
 36
1.0
 17
0.0
 27
0.0
 37
0.0
 42
50.0
 43
0.0
 44
0.0
 45
266.0100544733513
 50
0.0
 51
0.0
 72
   100
 90
   557152
  1

281
     0
 71
     1
 74
     0
110
0.0
120
0.0
130
0.0
111
1.0
121
0.0
131
0.0
112
0.0
122
1.0
132
0.0
 79
     0
146
0.0
  0
ENDSEC
  0
SECTION
  2
OBJECTS
  0
DICTIONARY
  5
C
330
0
100
AcDbDictionary
281
     1
  3
ACAD_CIP_PREVIOUS_PRODUCT_INFO
350
86A
  3
ACAD_DETAILVIEWSTYLE
350
865
  3
ACAD_GROUP
350
D
  3
ACAD_IMAGE_VARS
350
962
  3
ACAD_LAYOUT
350
1A
  3
ACAD_MLINESTYLE
350
17
  3
ACAD_PLOTSETTINGS
350
19
  3
ACAD_PLOTSTYLENAME
350
E
  3
ACAD_SCALELIST
350
84F
  3
ACAD_SECTIONVIEWSTYLE
350
863
  3
AcDbVariableDictionary
350
915
  3
APPDATA
350
960
  3
DWGPROPS
350
AC3
  0
DICTIONARY
  5
89A
330
10
100
AcDbDictionary
280
     1
281
     1
  3
ADSK_XREC_LAYER_RECONCILED
360
89B
  0
DICTIONARY
  5
8B0
330
204
100
AcDbDictionary
280
     1
281
     1
  3
ADSK_XREC_LAYER_RECONCILED
360
8B1
  0
DICTIONARY
  5
8DE
330
21B
100
AcDbDictionary
280
     1
281
     1
  3
ADSK_XREC_LAYER_RECONCILED
360
8DF
  0
DICTIONARY
  5
A71
330
A70
100
AcDbDictionary
280
     1
281
     1
  3
AcDbBlockTableRecordData
360
A72
  0
XRECORD
  5
86A
102
{ACAD_REACTORS
330
C
102
}
330
C
100
AcDbXrecord
280
     1
300
ACD
300
2015
300
ACD_F_S
  0
DICTIONARY
  5
865
102
{ACAD_REACTORS
330
C
102
}
330
C
100
AcDbDictionary
281
     1
  3
Metric50
350
866
  0
DICTIONARY
  5
D
102
{ACAD_REACTORS
330
C
102
}
330
C
100
AcDbDictionary
281
     1
  0
RASTERVARIABLES
  5
962
102
{ACAD_REACTORS
330
C
102
}
330
C
100
AcDbRasterVariables
 90
        0
 70
     1
 71
     1
 72
     1
  0
DICTIONARY
  5
1A
102
{ACAD_REACTORS
330
C
102
}
330
C
100
AcDbDictionary
281
     1
  3
Layout1
350
817
  3
Model
350
816
  0
DICTIONARY
  5
17
102
{ACAD_REACTORS
330
C
102
}
330
C
100
AcDbDictionary
281
     1
  3
Standard
350
18
  0
DICTIONARY
  5
19
102
{ACAD_REACTORS
330
C
102
}
330
C
100
AcDbDictionary
281
     1
  0
ACDBDICTIONARYWDFLT
  5
E
102
{ACAD_REACTORS
330
C
102
}
330
C
100
AcDbDictionary
281
     1
  3
Normal
350
F
100
AcDbDictionaryWithDefault
340
F
  0
DICTIONARY
  5
84F
102
{ACAD_REACTORS
330
C
102
}
330
C
100
AcDbDictionary
281
     1
  3
A0
350
850
  3
A1
350
851
  3
A2
350
852
  3
A3
350
853
  3
A4
350
854
  3
A5
350
855
  3
A6
350
856
  3
A7
350
857
  3
A8
350
858
  3
A9
350
859
  3
B0
350
85A
  3
B1
350
85B
  3
B2
350
85C
  3
B3
350
85D
  3
B4
350
85E
  3
B5
350
85F
  3
B6
350
860
  0
DICTIONARY
  5
863
102
{ACAD_REACTORS
330
C
102
}
330
C
100
AcDbDictionary
281
     1
  3
Metric50
350
864
  0
DICTIONARY
  5
915
102
{ACAD_REACTORS
330
C
102
}
330
C
100
AcDbDictionary
281
     1
  3
DIMASSOC
350
91D
  3
INDEXCTL
350
91C
  3
SORTENTS
350
91B
  0
DICTIONARY
  5
960
102
{ACAD_REACTORS
330
C
102
}
330
C
100
AcDbDictionary
281
     1
  0
XRECORD
  5
AC3
102
{ACAD_REACTORS
330
C
102
}
330
C
100
AcDbXrecord
280
     1
  1
DWGPROPS COOKIE
  2

  3

  4

  6

  7

  8
d610igzo
  9

300
=
301
=
302
=
303
=
304
=
305
=
306
=
307
=
308
=
309
=
 40
0.0
 41
2457062.005805232
 42
2457092.412642141
  1

 90
        0
  0
XRECORD
  5
89B
102
{ACAD_REACTORS
330
89A
102
}
330
89A
100
AcDbXrecord
280
     1
290
     1
  0
XRECORD
  5
8B1
102
{ACAD_REACTORS
330
8B0
102
}
330
8B0
100
AcDbXrecord
280
     1
290
     1
  0
XRECORD
  5
8DF
102
{ACAD_REACTORS
330
8DE
102
}
330
8DE
100
AcDbXrecord
280
     1
290
     1
  0
DICTIONARY
  5
A72
102
{ACAD_REACTORS
330
A71
102
}
330
A71
100
AcDbDictionary
280
     1
281
     1
  0
ACDBDETAILVIEWSTYLE
  5
866
102
{ACAD_REACTORS
330
865
102
}
102
{ACAD_XDICTIONARY
360
95E
102
}
330
865
100
AcDbModelDocViewStyle
 70
     0
  3
Metric50
290
     0
100
AcDbDetailViewStyle
 70
     0
 71
     0
 90
        3
 71
     1
340
11
 40
5.0
340
0
 40
5.0
300

 40
0.0
280
     1
 71
     2
340
16
 90
       25
 71
     3
340
11
 40
5.0
 90
        0
 40
15.0
 90
        1
300
%<\AcVar ViewDetailId>% (%<\AcVar ViewScale \f "%sn">%)
 71
     4
340
16
 90
       25
340
16
 90
       25
280
     0
  0
LAYOUT
  5
817
102
{ACAD_REACTORS
330
1A
102
}
330
1A
100
AcDbPlotSettings
  1

  2
none_device
  4
ISO_A2_(594.00_x_420.00_MM)
  6

 40
0.0
 41
0.0
 42
0.0
 43
0.0
 44
594.0
 45
420.0
 46
0.0
 47
0.0
 48
0.0
 49
0.0
140
0.0
141
0.0
142
1.0
143
1.0
 70
     0
 72
     1
 73
     0
 74
     0
  7

 75
     0
147
1.0
148
0.0
149
0.0
100
AcDbLayout
  1
Layout1
 70
     1
 71
     1
 10
0.0
 20
0.0
 11
594.0
 21
420.0
 12
0.0
 22
0.0
 32
0.0
 14
1.000000000000000E+20
 24
1.000000000000000E+20
 34
1.000000000000000E+20
 15
-1.000000000000000E+20
 25
-1.000000000000000E+20
 35
-1.000000000000000E+20
146
0.0
 13
0.0
 23
0.0
 33
0.0
 16
1.0
 26
0.0
 36
0.0
 17
0.0
 27
1.0
 37
0.0
 76
     0
330
234
331
984
  0
LAYOUT
  5
816
102
{ACAD_REACTORS
330
1A
102
}
330
1A
100
AcDbPlotSettings
  1

  2
none_device
  4
ISO_A2_(594.00_x_420.00_MM)
  6

 40
0.0
 41
0.0
 42
0.0
 43
0.0
 44
594.0
 45
420.0
 46
0.0
 47
0.0
 48
0.0
 49
0.0
140
0.0
141
0.0
142
1.0
143
1.0
 70
  1024
 72
     1
 73
     0
 74
     0
  7

 75
     0
147
1.0
148
0.0
149
0.0
100
AcDbLayout
  1
Model
 70
     0
 71
     0
 10
253.1362446530379
 20
142.3863080738663
 11
393.4668963826305
 21
258.6963977956908
 12
0.0
 22
0.0
 32
0.0
 14
203.6186186928
 24
53.84988654643581
 34
0.0
 15
488.2840002645353
 25
314.644057598741
 35
0.0
146
0.0
 13
0.0
 23
0.0
 33
0.0
 16
1.0
 26
0.0
 36
0.0
 17
0.0
 27
1.0
 37
0.0
 76
     0
330
233
331
1F4
  0
MLINESTYLE
  5
18
102
{ACAD_REACTORS
330
17
102
}
330
17
100
AcDbMlineStyle
  2
STANDARD
 70
     0
  3

 62
   256
 51
90.0
 52
90.0
 71
     2
 49
0.5
 62
   256
  6
BYLAYER
 49
-0.5
 62
   256
  6
BYLAYER
  0
ACDBPLACEHOLDER
  5
F
102
{ACAD_REACTORS
330
E
102
}
330
E
  0
SCALE
  5
850
102
{ACAD_REACTORS
330
84F
102
}
330
84F
100
AcDbScale
 70
     0
300
1:1
140
1.0
141
1.0
290
     1
  0
SCALE
  5
851
102
{ACAD_REACTORS
330
84F
102
}
330
84F
100
AcDbScale
 70
     0
300
1:2
140
1.0
141
2.0
290
     0
  0
SCALE
  5
852
102
{ACAD_REACTORS
330
84F
102
}
330
84F
100
AcDbScale
 70
     0
300
1:4
140
1.0
141
4.0
290
     0
  0
SCALE
  5
853
102
{ACAD_REACTORS
330
84F
102
}
330
84F
100
AcDbScale
 70
     0
300
1:5
140
1.0
141
5.0
290
     0
  0
SCALE
  5
854
102
{ACAD_REACTORS
330
84F
102
}
330
84F
100
AcDbScale
 70
     0
300
1:8
140
1.0
141
8.0
290
     0
  0
SCALE
  5
855
102
{ACAD_REACTORS
330
84F
102
}
330
84F
100
AcDbScale
 70
     0
300
1:10
140
1.0
141
10.0
290
     0
  0
SCALE
  5
856
102
{ACAD_REACTORS
330
84F
102
}
330
84F
100
AcDbScale
 70
     0
300
1:16
140
1.0
141
16.0
290
     0
  0
SCALE
  5
857
102
{ACAD_REACTORS
330
84F
102
}
330
84F
100
AcDbScale
 70
     0
300
1:20
140
1.0
141
20.0
290
     0
  0
SCALE
  5
858
102
{ACAD_REACTORS
330
84F
102
}
330
84F
100
AcDbScale
 70
     0
300
1:30
140
1.0
141
30.0
290
     0
  0
SCALE
  5
859
102
{ACAD_REACTORS
330
84F
102
}
330
84F
100
AcDbScale
 70
     0
300
1:40
140
1.0
141
40.0
290
     0
  0
SCALE
  5
85A
102
{ACAD_REACTORS
330
84F
102
}
330
84F
100
AcDbScale
 70
     0
300
1:50
140
1.0
141
50.0
290
     0
  0
SCALE
  5
85B
102
{ACAD_REACTORS
330
84F
102
}
330
84F
100
AcDbScale
 70
     0
300
1:100
140
1.0
141
100.0
290
     0
  0
SCALE
  5
85C
102
{ACAD_REACTORS
330
84F
102
}
330
84F
100
AcDbScale
 70
     0
300
2:1
140
2.0
141
1.0
290
     0
  0
SCALE
  5
85D
102
{ACAD_REACTORS
330
84F
102
}
330
84F
100
AcDbScale
 70
     0
300
4:1
140
4.0
141
1.0
290
     0
  0
SCALE
  5
85E
102
{ACAD_REACTORS
330
84F
102
}
330
84F
100
AcDbScale
 70
     0
300
8:1
140
8.0
141
1.0
290
     0
  0
SCALE
  5
85F
102
{ACAD_REACTORS
330
84F
102
}
330
84F
100
AcDbScale
 70
     0
300
10:1
140
10.0
141
1.0
290
     0
  0
SCALE
  5
860
102
{ACAD_REACTORS
330
84F
102
}
330
84F
100
AcDbScale
 70
     0
300
100:1
140
100.0
141
1.0
290
     0
  0
ACDBSECTIONVIEWSTYLE
  5
864
102
{ACAD_REACTORS
330
863
102
}
102
{ACAD_XDICTIONARY
360
95C
102
}
330
863
100
AcDbModelDocViewStyle
 70
     0
  3
Metric50
290
     0
100
AcDbSectionViewStyle
 70
     0
 71
     0
 90
      102
 71
     1
340
11
 40
5.0
340
0
340
0
 40
5.0
300
I, O, Q, S, X, Z
 40
10.0
 90
        0
 40
2.5
 90
        0
 71
     2
340
16
 90
       25
340
16
 90
       50
 40
5.0
 40
2.5
 40
5.0
 71
     3
340
11
 40
5.0
 90
        0
 40
15.0
 90
        1
300
%<\AcVar ViewSectionStartId>%-%<\AcVar ViewSectionEndId>% (%<\AcVar ViewScale \f "%sn">%)
 71
     4
300
ANSI31
 40
1.0
 90
        0
290
     0
290
     0
 90
        6
 40
0.0
 40
1.570796326794896
 40
0.2617993877991494
 40
1.308996938995747
 40
-0.2617993877991494
 40
1.832595714594046
  0
DICTIONARYVAR
  5
91D
102
{ACAD_REACTORS
330
915
102
}
330
915
100
DictionaryVariables
280
     0
  1
1
  0
DICTIONARYVAR
  5
91C
102
{ACAD_REACTORS
330
915
102
}
330
915
100
DictionaryVariables
280
     0
  1
0
  0
DICTIONARYVAR
  5
91B
102
{ACAD_REACTORS
330
915
102
}
330
915
100
DictionaryVariables
280
     0
  1
127
  0
DICTIONARY
  5
95E
330
866
100
AcDbDictionary
280
     1
281
     1
  3
ACAD_XREC_ROUNDTRIP
360
95F
  0
DICTIONARY
  5
95C
330
864
100
AcDbDictionary
280
     1
281
     1
  3
ACAD_XREC_ROUNDTRIP
360
95D
  0
XRECORD
  5
95F
102
{ACAD_REACTORS
330
95E
102
}
330
95E
100
AcDbXrecord
280
     1
102
DISPLAYNAME
  1
Metric50
102
FLAGS
 90
        0
  0
XRECORD
  5
95D
102
{ACAD_REACTORS
330
95C
102
}
330
95C
100
AcDbXrecord
280
     1
102
DISPLAYNAME
  1
Metric50
102
FLAGS
 90
        0
  0
ENDSEC
  0
EOF
